Red Hot Chili Peppers - This Is The Place

Buyuknet15.10.2010 - 01:59 |
verse:   

E---12------------ 

B---13------------ 

G---14------------ 

D----------------- 

A-----------------        you do this a few times through the verse 

E----------------- 

 

till the end, you go 

 

---------12-12- 

---------13-13- 

---------14-14- 

--------------- 

--------------- 

---------------   

then the cool part   

chorus:   

E----------12------------------------15-12--------- 

B-------13--------13--------13----13-------13------ 

G----14------------------14----14------------------ 

D-------------------------------------------------- 

A--------------------------------------------------          \    / 

E--------------------------------------------------           \  / 

                                                               \/    2 

E-----------12--------------10------10------10-----            /\     

B--------13--------13-------12---13-12---13-12-13--           /  \ 

G-----14--------------------12------12------12-----          /    \ 

D-------------------------------------------------- 

A-------------------------------------------------- 

E-------------------------------------------------- 

 

* verse 

* chorus 

 

post chorus solo thingy: 

 

E-------------------------------------------------- 

B-------------------------------------------------- 

G----------------14-------------------------------- 

D-----12-14---12------12-14---12-10---12-h14-12---- 

A--------------------------------------------------          \    / 

E--------------------------------------------------         \  / 

                                                               \/ 

                                                               /\    2 

E--------------------------------------------------           /  \ 

B--------------------------------------------------          /    \ 

G----------------14-------------------------------- 

D-----12-14---12------12-14---12-10---10-h12------- 

A--------------------------------------------12---- 

E-------------------------------------------------- 

 

 

Interlude: 

 

F    C    Dsus         X4 

 

* verse 

* chorus 

* post chorus solo several times 

 

 

 

                                  >> 

 

Chords: 

 

   F   C   Dsus 

 

E  1   0   3 

B  1   1   3 

G  2   0   2 

D  3   2   0 

A  3   3   0 

E  1   0   0 

Linkback: https://www.buyuknet.com/red-hot-chili-peppers-this-is-the-place-t29163.0.html

Etiket:
 

Bu bilgi size yardimci oldu mu?

EvetHayır
Red Hot Chili Peppers - This Is The Place
Red Hot Chili Peppers - This Is The Place
(Ortalama: 5 üzerinden 2.5 - 2 Oy)
2
Red Hot Chili Peppers - This Is The Place

Red Hot Chili Peppers - This Is The Place »verse:    E---12------------  B---13------------  G---14------------  D-----------------  A-----------------        you do this a