Red Hot Chili Peppers - Throw Away Your Television

Buyuknet15.10.2010 - 01:59 |
(verse)

When guitar finally comes in

E -----------------------------------------------------------

B -----------------------------------------------------------

G -----------------------------------------------------------

D ----------------5-5----7-7-------------------------------

A ----7-7---------------------------------------------------

E ------------------------------------------------------------

 

    Keep strumming that with a crescendo

E -----(12)------------------------------------------------------

B -----(12)------------------------------------------------------

G -----(12)------------------------------------------------------

D -----(12)------------------------------------------------------

A -----(12)------------------------------------------------------

E -----(12)------------------------------------------------------

 

this comes in a few times in the song, scratch the string with a phaser or wah

E ----------------------------------------------------------

B ----------------------------------------------------------

G ----------------------------------------------------------

D ----------------------------------------------------------

A -x-x-x-x-x-x-x-x-x-x-x-x-x-x-x-x-x-x-x-x-x-x-x-x-x--------

E ----------------------------------------------------------

 

Chorus (with phaser)

      Am   Em  Am  Em Am  Em  G   F

E -----0----0----0----0----0----0----3---1-------------------

B -----1----0----1----0----1----0----3---1-------------------

G -----2----0----2----0----2----0----0---2-------------------

D -----2----2----2----2----2----2----0---3-------------------

A -----0----2----0----2----0----2----2---3-------------------

E -----0---------0---------0----3--------1-------------------

 

Interlude (I Think he's using the Z-Vex Seek Wah filter for this effect)

      change chords as the bass changes notes

     A       E         G        D

E ---9------12--------15-------10-------------------

B --10------12--------15-------10-------------------

G ---9-------9--------12--------7--------------------

D -----------9--------12--------7--------------------

A ------------------------------------------------------

E -------------------------------------------------------

 

The rest of the song is Am, Em, Am, Em, Am, Em and so on....

Linkback: https://www.buyuknet.com/red-hot-chili-peppers-throw-away-your-television-t29161.0.html

Etiket:
 

Bu bilgi size yardimci oldu mu?

EvetHayır
Red Hot Chili Peppers - Throw Away Your Television
Red Hot Chili Peppers - Throw Away Your Television
(Ortalama: 5 üzerinden 2.5 - 2 Oy)
2
Red Hot Chili Peppers - Throw Away Your Television

Red Hot Chili Peppers - Throw Away Your Television »(verse) When guitar finally comes in E ----------------------------------------------------------- B