Red Hot Chili Peppers - Time |

Buyuknet15.10.2010 - 01:59 |
 Intro

-x----------------x-----------------x-----------------x------------------|

-x----------------x-----------------x-----------------x------------------|

-x----------------x-----------------x-----------------x------------------|

-------------------------------------------------------------------------|

-------------------------------------------------------------------------|

-------------------------------------------------------------------------|

 

 Verse (With Delay)

 

-12---------------15----------------12----------------15-----------------|

-13---------------13----------------13----------------13-----------------|

-14---------------------------------14-----------------------------------|

------------------15----------------------------------15-----------------|

-------------------------------------------------------------------------|

-------------------------------------------------------------------------|

 

 Chorus (Panned hard right)

 

-------------------------------------------------------------------------|

-------------------------------------------------------------------------|

-7h9--------------7---7h9-9-9--------------------------------------------|

-------------------------------------------------------------------------|

-----77-77------7---7----------------------------------------------------|

-----------1010----------------------------------------------------------|

 

 Bridge

 

------------------14----------------------------------12-----------------|

-16---------------14---------------14-----------------12-----------------|

-16---------------14---------------14-----------------13-----------------|

-16---------------16---------------14-----------------14-----------------|

-14---------------16---------------12-----------------14-----------------|

------------------14----------------------------------12-----------------|

 

 Outro (Distortion, Repeat each line a few times)

 

--------------14-12-----12-----------------------------------------------|

-12--12-12-12--------15----15---12--12-12-12--12-------------------------|

-------------------------------------------------11----------------------|

-------------------------------------------------------------------------|

-------------------------------------------------------------------------|

-------------------------------------------------------------------------|

 

-----------------0-2-0---0-----------------------------------------------|

-0--00-0-000-00--------3----0--00-0-000-00-------------------------------|

-------------------------------------------------------------------------|

-------------------------------------------4-----------------------------|

-------------------------------------------------------------------------|

-------------------------------------------------------------------------|

Linkback: https://www.buyuknet.com/red-hot-chili-peppers-time-t29160.0.html

Etiket:
 

Bu bilgi size yardimci oldu mu?

EvetHayır
Red Hot Chili Peppers - Time |
Red Hot Chili Peppers - Time |
(Ortalama: 5 üzerinden 2.5 - 2 Oy)
2
Red Hot Chili Peppers - Time |

Red Hot Chili Peppers - Time | » Intro -x----------------x-----------------x-----------------x------------------|