Red Hot Chili Peppers - Torture Me

Buyuknet15.10.2010 - 01:59 |
Bass arranged for guitar

E----------------------------------------------------------------------------------------------

B----------------------------------------------------------------------------------------------

G----------------------------------------------------------------------------------------------

D----------------------------------------------------------------------------------------------

A----------8---8-----------8---8-----------6h8-----------8---8-----------8---8-----------8-----

E--6---6-----------6---6-----------6---6---------6---6-----------6---6-----------6---6---------

 

E----------------------------------------------------------------------------------------------

B----------------------------------------------------------------------------------------------

G----------------------------------------------------------------------------------------------

D----------------------------------------------------------------------------------------------

A--9-------9-------9-------9-------9-------9/11--9-------9-------9-------9-------11--11--------

E--------------9---------------9-----------------------------9---------------9-----------9-----

 

E----------------------------------------------------------------------------------------------

B----------------------------------------------------------------------------------------------

G----------------------------------------------------------------------------------------------

D----------------------------------------------------------------------------------------------

A----------8---8-----------8---8-----------6h8-----------8---8-----------8---8-----------8-----

E--6---6-----------6---6-----------6---6---------6---6-----------6---6-----------6---6---------

 

E----------------------------------------------------------------------------------------------

B----------------------------------------------------------------------------------------------

G----------------------------------------------------------------------------------------------

D----------------------------------------------------------------------------------------------

A--9-------9-------9-------9-------9-------9/11--9-------9-------9-------11---9---8--h9---8----

E--------------9---------------9-----------------------------9---------------------------------

 

Guitar

Verse riff 1

W/ Dist (Throughout)

 

E--9----9--9--9--9--9----9--9--9--9--9--9--9--9--9----9--9--9--9--9----9--9--9--9--9--9--9--9--

B--11---11-11-11-11-11---11-11-11-11-11-11-11-11-11---11-11-11-11-11---11-11-11-11-11-11-11-11-

G--10---10-10-10-10-10---10-10-10-10-10-10-10-10-10---10-10-10-10-10---10-10-10-10-10-10-10-10-

D--x----------------x----------------x-----------x----------------x----------------x-----------

A--8----------------8----------------8-----------8----------------8----------------8-----------

E----------------------------------------------------------------------------------------------

 

E--11---11-11-11-11-11---11-11-11-11-11-11-11-11-11---11-11-11-11-11---11-11-11-11-11-11-11-11-

B--11---11-11-11-11-11---11-11-11-11-11-11-11-11-11---11-11-11-11-11---11-11-11-11-11-11-11-11-

G--11---11-11-11-11-11---11-11-11-11-11-11-11-11-11---11-11-11-11-11---11-11-11-11-11-11-11-11-

D--x----------------x----------------x-----------x----------------x----------------x-----------

A--9----------------9----------------9-----------9----------------9----------------9-----------

E----------------------------------------------------------------------------------------------

 

Verse riff 2

 

E--9----9--9--9--9--9----9--9--9--9--9--9--9--9--9----9--9--9--9--9----9--9--9--9--9--9--9--9--

B--11---11-11-11-11-11---11-11-11-11-11-11-11-11-11---11-11-11-11-11---11-11-11-11-11-11-11-11-

G--10---10-10-10-10-10---10-10-10-10-10-10-10-10-10---10-10-10-10-10---10-10-10-10-10-10-10-10-

D--x----------------x----------------x-----------x----------------x----------------x-----------

A--8----------------8----------------8-----------8----------------8----------------8-----------

E----------------------------------------------------------------------------------------------

 

E--11---11-11-11-11-11---11-11-11-11-11-11-11-11-11---11-11-11-11-11---8--8--8--8--8--8--8--8--

B--11---11-11-11-11-11---11-11-11-11-11-11-11-11-11---11-11-11-11-11---11-11-11-11-11-11-11-11-

G--11---11-11-11-11-11---11-11-11-11-11-11-11-11-11---11-11-11-11-11---11-11-11-11-11-11-11-11-

D--x----------------x----------------x-----------x----------------x----------------------------

A--9----------------9----------------9-----------9----------------9----------------------------

E----------------------------------------------------------------------------------------------

 

Verse riff 3

 

E--9----9--9--9--9--9----9--9--9--9--9--9--9--9--9----9--9--9--9--9----9--9--9--9--9--9--9--9--

B--11---11-11-11-11-11---11-11-11-11-11-11-11-11-11---11-11-11-11-11---11-11-11-11-11-11-11-11-

G--10---10-10-10-10-10---10-10-10-10-10-10-10-10-10---10-10-10-10-10---10-10-10-10-10-10-10-10-

D--x----------------x----------------x-----------x----------------x----------------x-----------

A--8----------------8----------------8-----------8----------------8----------------8-----------

E----------------------------------------------------------------------------------------------

 

E--11---11-11-11-11-11---11-11-11-11-11-11-11-11-----------------------------------------------

B--11---11-11-11-11-11---11-11-11-11-11-11-11-11-----------------------------------------------

G--11---11-11-11-11-11---11-11-11-11-11-11-11-11-----------------------------------------------

D--x----------------x----------------x---------------------------------------------------------

A--9----------------9----------------9-----------11-11-11-11-11-11-11-11-11-11-11-11-11-11-11--

E----------------------------------------------------------------------------------------------

 

 

Chorus 1

 

E----------------------------------------------------------------------------------

B--------------------6-------------------------------------------------------------

G-------------------------6--------------6----------------6--8fb--r--------------6-

D--8--------------8-------------------8---------------------------------------8----

A---------------------------------------------9------------------------------------

E----------------------------------------------------------------------------------

   |    |    |    |    |    |    |    |    |    |    |    |    |    |    |    |               

E----------------------------------------------------------------------------------

B--------------------6-------------------------------------------------------------

G-------------------------6--------------6-----------------------------------------

D----8------------8-------------------8--------------------------------------------

A---------------------------------------------9-----------9--6fb--r-----------6/8--

E----------------------------------------------------------------------------------

   |    |    |    |    |    |    |    |    |    |    |    |    |    |    |    |               

 

 

 

Chorus 2

__________________

|

E----------------------------------------------------------------------------------

B--------------------6-------------------------------------------------------------

G-------------------------6--------------6----------------6--8fb--r--------------6-

D--8--------------8-------------------8---------------------------------------8----

A---------------------------------------------9------------------------------------

E----------------------------------------------------------------------------------

|  |    |    |    |    |    |    |    |    |    |    |    |    |    |    |    |               

E--------------------4-------------------------------------------------------------

B-------------------------6--------------6----7-----------6--7fb--r--------------6-

G--6--------------6-------------------6---------------------------------------6----

D----------------------------------------------------------------------------------

A----------------------------------------------------------------------------------

E----------------------------------------------------------------------------------

|_________________                 

__________________

|

E----------------------------------------------------------------------------------

B--------------------6-------------------------------------------------------------

G-------------------------6--------------6-----------------------------------------

D----8------------8-------------------8--------------------------------------------

A---------------------------------------------9-----------9--8---6----------------

E----------------------------------------------------------------------------------

|  |    |    |    |    |    |    |    |    |    |    |    |    |    |    |    |               

E--------------------4-------------------------------------------------------------

B-------------------------6--------------6----7-----------6--7fb---r---------------

G----6------------6-------------------6--------------------------------------------

D----------------------------------------------------------------------------------

A----------------------------------------------------------------------------------

E----------------------------------------------------------------------------------

|_________________

 

 

Middle verse

 

E----------------------------------------------------------------------------------

B----------------------------------------------------------------------------------

G--6----------------------------------------8--------------------------------------

D--6----------------------------------------8--------------------------------------

A--4----------------------------------------6--------------------------------------

E----------------------------------------------------------------------------------

 

E----------------------------------------------------------------------------------

B-------------------------------------------7--------------------------------------

G--6----------------------------------------8--------------------------------------

D--6----------------------------------------8--------------------------------------

A--4----------------------------------------6--------------------------------------

E----------------------------------------------------------------------------------

 

E----------------------------------------------------------------------------------

B----------------------------------------------------------------------------------

G--6----------------------------------------8--------------------------------------

D--6----------------------------------------8--------------------------------------

A--4----------------------------------------6--------------------------------------

E----------------------------------------------------------------------------------

_________________

|

E----------------------------------------------------------------------------------

B----------------------------------------------------------------------------------

G--6----------------------------------------8--------------------------------------

D--6----------------------------------------8--------------------------------------

A--4----------------------------------------6--------------------------------------

E----------------------------------------------------------------------------------

|

E-16-16-16-16-16-16-16-16-16-16-16-16-16-16-18-18-18-18-18-18-18-18-18-18-18-18-18-

B-18-18-18-18-18-18-18-18-18-18-18-18-18-18-19-19-19-19-19-19-19-19-19-19-19-19-19-

G-18-18-18-18-18-18-18-18-18-18-18-18-18-18-20-20-20-20-20-20-20-20-20-20-20-20-20-

D----------------------------------------------------------------------------------

A----------------------------------------------------------------------------------

E----------------------------------------------------------------------------------

|________________

_________________

|

E----------------------------------------------------------------------------------

B-------------------------------------------7--------------------------------------

G--6----------------------------------------8--------------------------------------

D--6----------------------------------------8--------------------------------------

A--4----------------------------------------6--------------------------------------

E----------------------------------------------------------------------------------

|

E-16-16-16-16-16-16-16-16-16-16-16-16-16-16----------------------------------------

B-18-18-18-18-18-18-18-18-18-18-18-18-18-18----------------------------------------

G-18-18-18-18-18-18-18-18-18-18-18-18-18-18----------------------------------------

D----------------------------------------------------------------------------------

A----------------------------------------------------------------------------------

E----------------------------------------------------------------------------------

|________________

 

 

Solo

 

E--------------------------------------------------------------------------------------------------

B--------------------------------------------------------------------------------------------------

G--------------------------------------------------------------------------13-----15-------15fb----

D--6--6--6--6--8--8--8--8--8--8--8--8------11--13-/15-----15--15--15--15---------------------------

A--------------------------------------------------------------------------------------------------

E--------------------------------------------------------------------------------------------------

   |           |           |           |           |           |           |           |           |     

 

 

E--------------------------------------------------------------------------------------------------

B--------------------------------------------------------------------------------------------------

G--15----------------------13----------15----15fb--15------15p13----15p13----15p13----15p13--------

D--------------------15------------------------------------------15-------15-------15-------15-15--

A--------------------------------------------------------------------------------------------------

E--------------------------------------------------------------------------------------------------

   |           |           |           |           |           |           |           |                 

 

E--------------------------------------------------------------------------------------------------

B---------------------------------------14h16fb----16fb--------16fb------r--p14----14--16fb--------

G-----------------------13---------15-------------------------------------------15-----------------

D--15----------15----------------------------------------------------------------------------------

A--------------------------------------------------------------------------------------------------

E--------------------------------------------------------------------------------------------------

   |           |           |           |           |           |           |           |                 

 

E--16----------------------------------------------16----------------------------------------------

B---------------r--p14----14--16fb-----------------------r--p14----14--16-16-16-16--16-16-16-16----

G----------------------15---------------------------------------15---------------------------------

D--------------------------------------------------------------------------------------------------

A--------------------------------------------------------------------------------------------------

E--------------------------------------------------------------------------------------------------

   |           |           |           |           |           |           |           |                 

 

E--------------------------------------------------------------------------------------------------

B--16-p14--------------------------14-1616161616161616p14------16161616p14----16161616p14----------

G----------15-------------------15------------------------15---------------15-------------15----13h

D--------------------------------------------------------------------------------------------------

A--------------------------------------------------------------------------------------------------

E--------------------------------------------------------------------------------------------------

   |           |           |           |           |           |           |           |                 

 

E--------------------------------------------------------------------------------------------------

B--------------------------------------------------------------------------------------------------

G--15----------15-----15--15fb--r---------13--15-15-15fb--r----------13--15fb--r---13---15fb--r----

D--------------------------------------------------------------------------------------------------

A--------------------------------------------------------------------------------------------------

E--------------------------------------------------------------------------------------------------

   |           |           |           |           |           |           |           |                 

 

E--------------------------------------------------------------------------------------------------

B--------------------------------------------------------------------------------------------------

G--13h15p13--13h15p13--13h15p13--13h15p13--13h15p13--13h15p13--13h15p13--13h15p13--13h15p13--------

D----------15--------15--------15--------15--------15--------15--------15--------15--------15-15-15

A--------------------------------------------------------------------------------------------------

E--------------------------------------------------------------------------------------------------

   |           |           |           |           |           |           |           |           

E-------------16-16-16---18-18-18---18fb-----r-------------------------16------18fb----r-----------

B--18-18-18----------------------------------------------------18-18-------------------------------

G--------------------------------------------------------------------------------------------------

D--------------------------------------------------------------------------------------------------

A--------------------------------------------------------------------------------------------------

E--------------------------------------------------------------------------------------------------

   |           |           |           |           |           |           |           |           

 

Chorus 3/end

 

E----------------------------------------------------------------------------------

B--------------------6-------------------------------------------------------------

G-------------------------6--------------6----------------6--8fb--r--------------6-

D--8--------------8-------------------8---------------------------------------8----

A---------------------------------------------9------------------------------------

E----------------------------------------------------------------------------------

   |    |    |    |    |    |    |    |    |    |    |    |    |    |    |    |               

E----------------------------------------------------------------------------------

B--------------------6-------------------------------------------------------------

G-------------------------6--------------6------------------------------------6----

D----8------------8-------------------8-----------------------------------/8-------

A---------------------------------------------9-----------9--6fb--r----------------

E----------------------------------------------------------------------------------

   |    |    |    |    |    |    |    |    |    |    |    |    |    |    |    |     

__________________

|

E----------------------------------------------------------------------------------

B--------------------6-------------------------------------------------------------

G-------------------------6--------------6----------------6--8fb--r--------------6-

D--8--------------8-------------------8---------------------------------------8----

A---------------------------------------------9------------------------------------

E----------------------------------------------------------------------------------

|  |    |    |    |    |    |    |    |    |    |    |    |    |    |    |    |               

E--------------------4-------------------------------------------------------------

B-------------------------6--------------6----7-----------6--7fb--r--------------6-

G--6--------------6-------------------6---------------------------------------6----

D----------------------------------------------------------------------------------

A----------------------------------------------------------------------------------

E----------------------------------------------------------------------------------

|_________________                 

__________________

|

E----------------------------------------------------------------------------------

B--------------------6-------------------------------------------------------------

G-------------------------6--------------6-----------------------------------------

D----8------------8-------------------8--------------------------------------------

A---------------------------------------------9-----------9--8---6----------------

E----------------------------------------------------------------------------------

|  |    |    |    |    |    |    |    |    |    |    |    |    |    |    |    |               

E--------------------4-------------------------------------------------------------

B-------------------------6--------------6----7-----------6--7fb---r---------------

G----6------------6-------------------6--------------------------------------------

D----------------------------------------------------------------------------------

A----------------------------------------------------------------------------------

E----------------------------------------------------------------------------------

|_________________

 

E----------------------------------------------------------------------------------

B----------------------------------------------------------------------------------

G----------------------------------------------------------------------------------

D--6h8-----------------------------------------------------------------------------

A----------------------------------------------------------------------------------

E----------------------------------------------------------------------------------

 

 

Arrangement

 

Bass intro

Verse riff 1

Verse riff 2

Verse riff 1

Verse riff 2

Verse riff 1

Verse riff 3

Chorus 1

Verse riff 2

Verse riff 2

Verse riff 2

Verse riff 3

Chorus 2

Middle Verse

Solo

Chorus 3/end

Linkback: https://www.buyuknet.com/red-hot-chili-peppers-torture-me-t29158.0.html

Etiket:
 

Bu bilgi size yardimci oldu mu?

EvetHayır
Red Hot Chili Peppers - Torture Me
Red Hot Chili Peppers - Torture Me
(Ortalama: 5 üzerinden 2.5 - 2 Oy)
2
Red Hot Chili Peppers - Torture Me

Red Hot Chili Peppers - Torture Me »Bass arranged for guitar E----------------------------------------------------------------------------------------------