Red Hot Chili Peppers - Venice Queen

Buyuknet15.10.2010 - 01:58
*





          E:----------------------------------------------------------------------------------------|

B:------------12----------------12-----------------12-------------------------------------|

G:-------12------12---------12------12--------12------12-----12--11-----------------------|  X4

D:-----9------------------9-----------------9---------------------------------------------|

A:----------------------------------------------------------------------------------------|

E:----------------------------------------------------------------------------------------|

 

 

jhon frushanti dous this strumming bit which u'll work out instantly, he uses

these chords:

E:---5-----------------7--------------------

B:---7-----------------8--------------------

G:---7-----------------9--------------------

D:---7-----------------9--------------------

A:---5-----------------7--------------------

E:---------------------7--------------------

 

you do that for alot of the song, but after that (on the acustic) it goes..............

 

E:--0-0----0-0-0-0-                E:-----2-2--2-2----3-3-3-3-3-3-3---|

B:--0-0----0-0-0-4-                B:-----3-3--3-3----3-3-3-3-3-3-3---|

G:--0-0----0-0-0-0-  X3 then=      G:-----2-2--2-2----2-2-2-2-2-2-2---|    do all of that X6

D:--2-2----2-2-2-2-                D:-----0-0--0-0----0-0-0-0-0-0-0---|

Linkback: https://www.buyuknet.com/red-hot-chili-peppers-venice-queen-t29154.0.html

Etiket:
 

Bu bilgi size yardimci oldu mu?

EvetHayır
Red Hot Chili Peppers - Venice Queen
Red Hot Chili Peppers - Venice Queen
(Ortalama: 5 üzerinden 2.5 - 2 Oy)
2
Red Hot Chili Peppers - Venice Queen

Red Hot Chili Peppers - Venice Queen »           E:----------------------------------------------------------------------------------------|