Red Hot Chili Peppers - Walkabout |

Buyuknet15.10.2010 - 01:58
*





          intro:

 

------------------------------------------------------------------

------------------------------------------------------------------

-9--7----------------9--7-----------------9--7--------------------

------5--7b(8)r7-5-------5--7b(8)r7p5-0--------5--7b(9)r7-5-------

------------------0-----------------------------------------0-----

------------------------------------------------------------------

 

--------------------------- --------------------------------------

--------------------------- --------------------------------------

--------------------------- --------------------------------------

--------------------------- ----5--7--7b(8)r7-5-7/9---------------

-0--3--5-5b(6)r5-3-/7------ --7-----------------------------------

--------------------------- --------------------------------------

 

---------------------------------------

---------------------------------------

-9--7----------------------------------

--------5--7b(8)r7--5-0----------------

------------------------------3--------

---------------------------------------

 

Riff

 

e----------7-7-7-7-7-x-x-x--------- --------------------------------

B--x-x-x-x-5-5-5-5-5-x-x-x---8-x-x- -7-7-7-7-----x-x---7------x-7-7-

G--x-x-x-x-5-5-5-5-5-x-x-x---5-x-x- -5-5-5-5-----x-x---5------x-5-5-

 repeat

                                   e--------------------------------

                                   B-7-------x-x-x-x-7-5~~----------

                                   G-5-------x-x-x-x-5-5~~----------

                                   D-----------------------x-5 -----

chorus

 

---------------------------------

---------------------------------

--------------------5------------

---7---5-------------------------

-----------7----------6-5-(8-7-)-

 

Bridge

G--10--9--8--x-7---7-----

D--9---8--7--x-6---6-----

A--11--9--9--x-7---7-----

E--9------7----------x---

 

Guitar Solo

e-------------------------------=----------------------5-8b(11) r5-5-

B-------------------------------=--------------------5------------8--

G-9b(11)   r(9)-5h7-7~~------5~~=---5-7b(9)r7-5-7b(9)----------------

D-----------------------5-6-7---=-7----------------------------------

 

e--------------x-x-x10b(12)r8--8-----------------------12b(15)-------

B-8b(10)-------x-x-x10b(12)r-10--10b(14)r  8h10-10~~~~---------------

G---------7-7/----------------------------------------x--------------

 

e-------------------------------------------10b(12)--10-8-10-8-

B-x-------------------------------------8----------------------

G-x--5---------5-----7b(9)---7-5-7~~--9---9--------------------

D--7-5-5h7-7-5----7-5------------------------------------------

 

e-8(9)--------8----------------------------------------------------

B-----10-8-10---10-8-----------------------------------------------

G--------8------------109-5---------------------------------5----

D-----------------------------7-5-7-7---------------------5/7---7-5

A------------------------------------5-53-5-5b(7)r5-3-5/7---------


Linkback: https://www.buyuknet.com/red-hot-chili-peppers-walkabout-t29153.0.html

Etiket:
 

Bu bilgi size yardimci oldu mu?

EvetHayır
Red Hot Chili Peppers - Walkabout |
Red Hot Chili Peppers - Walkabout |
(Ortalama: 5 üzerinden 2.5 - 2 Oy)
2
Red Hot Chili Peppers - Walkabout |

Red Hot Chili Peppers - Walkabout | »           intro:   ------------------------------------------------------------------