Red Hot Chili Peppers - Yertle The Turtle

Buyuknet15.10.2010 - 01:58
*





          Main Riff:  With Wah-Wah

 

 

e-|--------------------------------------------|-

B-|----6--6--6--6-----------------x-x-11-11----|-

G-|----------------x--x--3--x--5--x-x-10-10----|-

D-|--------------------------------------------|-

A-|--------------------------------------------|-

E-|--------------------------------------------|-

 

 

e-|--------------------------------------------|-

B-|----6--6--6--6-----------------x-x-11------|-

G-|----------------x--x--3--x--5--x-x-10------|-

D-|--------------------------------------------|-

A-|--------------------------------------------|-

E-|--------------------------------------------|-

 

 

 

Chorus: With-Wah

 

     G            Bb   C    Bb    G              Bb

e-|----------------------------|------------------------------|-

B-|--3------------3----5----3--|--3----3----3----3------------|-

G-|--4------------3----5----3--|--4----4----4----3------------|-

D-|--5------------3----5----3--|--5----5----5----3------------|-

A-|--5-------------------------|--5----5----5-----------------|-

E-|----------------------------|------------------------------|-

 

 

 

Interlude:                                                                            

 

 

e-|--------------------------|---------------------------|-

B-|--------------------------|---------------------------|-

G-|--------------------------|---------------------------|-

D-|--------------------------|---------------------------|-

A-|--3--3--3--3--3--3--3--2--|--1--1----1---1------------|-

E-|--------------------------|---------------------------|-

 

 

e-|--------------------------|----------------------------|-

B-|--------------------------|----------------------------|-

G-|--------------------------|----------------------------|-

D-|--------------------------|----------------------------|-

A-|--------------3--3--5--5--|-------4--4-3---------------|-

E-|--3--3--6--6--------------|--3----------------------6--|-

 

 

e-|--------------------------------|-----------------------------------|-

B-|-------x-x-x-x-x-x-x-x-x-x-x-x--|--x-x-x-x-x-x-x-x-x-x-x-x-x-x-x-x--|-

G-|-------x-x-x-x-x-x-x-x-x-x-x-x--|--x-x-x-x-x-x-x-x-x-x-x-x-x-x-x-x--|-

D-|-------x-x-x-x-x-x-x-x-x-x-x-x--|--x-x-x-x-x-x-x-x-x-x-x-x-x-x-x-x--|-

A-|--------------------------------|-----------------------------------|-

E-|--8-----------------------------|-----------------------------------|-

 

 

e-|-----------------------------------|-----------------------------------|-

B-|--x-x-x-x-x-x-x-x-x-x-x-x-x-x-x-x--|--x-x-x-x-x-x-x-x-x-x-x-x-x-x-x-x--|-

G-|--x-x-x-x-x-x-x-x-x-x-x-x-x-x-x-x--|--x-x-x-x-x-x-x-x-x-x-x-x-x-x-x-x--|-

D-|--x-x-x-x-x-x-x-x-x-x-x-x-x-x-x-x--|--x-x-x-x-x-x-x-x-x-x-x-x-x-x-x-x--|-

A-|-----------------------------------|-----------------------------------|-

E-|-----------------------------------|-----------------------------------|-

 

 

e-|-----------------------------------|-----------------------------------|-

B-|--x-x-x-x-x-x-x-x-x-x-x-x-x-x-x-x--|--x-x-x-x-x-x-x-x-x-x-x-x-x-x-x-x--|-

G-|--x-x-x-x-x-x-x-x-x-x-x-x-x-x-x-x--|--x-x-x-x-x-x-x-x-x-x-x-x-x-x-x-x--|-

D-|--x-x-x-x-x-x-x-x-x-x-x-x-x-x-x-x--|--x-x-x-x-x-x-x-x-x-x-x-x-x-x-x-x--|-

A-|-----------------------------------|-----------------------------------|-

E-|-----------------------------------|-----------------------------------|-

 

 

e-|-----------------------------------|-----------------------------|-

B-|--x-x-x-x-x-x-x-x-x-x-x-x-x-x-x-x--|--x-x-x-x-x-x-x-x------------|-

G-|--x-x-x-x-x-x-x-x-x-x-x-x-x-x-x-x--|--x-x-x-x-x-x-x-x------------|-

D-|--x-x-x-x-x-x-x-x-x-x-x-x-x-x-x-x--|--x-x-x-x-x-x-x-x------------|-

A-|-----------------------------------|-------------------8----8----|-

E-|-----------------------------------|-----------------------------|-

 

 

 

At the end Guitar 2

plays th*

 

 

e-|-----------------------------------------|-------------------------------------------|-

B-|----11----11----11-11-11-11----11-11-11--|--x-x-11----11----11-11-11-11----11-11-11--|-

G-|----10----10----10-10-10-10----10-10-10--|--x-x-10----10----10-10-10-10----10-10-10--|-

D-|-----9-----9-----9--9--9--9-----9--9--9--|--x-x--9-----9-----9--9--9--9-----9--9--9--|-

A-|----10----10----10-10-10-10----10-10-10--|------10----10----10-10-10-10----10-10-10--|-

E-|-----------------------------------------|-------------------------------------------|-

 

 

e-|-------------------------------------------|-------------------------------------------|-

B-|--x-x-11----11----11-11-11-11----11-11-11--|--x-x-11----11----11-11-11-11----11-11-11--|-

G-|--x-x-10----10----10-10-10-10----10-10-10--|--x-x-10----10----10-10-10-10----10-10-10--|-

D-|--x-x--9-----9-----9--9--9--9-----9--9--9--|--x-x--9-----9-----9--9--9--9-----9--9--9--|-

A-|------10----10----10-10-10-10----10-10-10--|------10----10----10-10-10-10----10-10-10--|-

E-|-------------------------------------------|-------------------------------------------|-

Linkback: https://www.buyuknet.com/red-hot-chili-peppers-yertle-the-turtle-t29149.0.html

Etiket:
 

Bu bilgi size yardimci oldu mu?

EvetHayır
Red Hot Chili Peppers - Yertle The Turtle
Red Hot Chili Peppers - Yertle The Turtle
(Ortalama: 5 üzerinden 2.5 - 2 Oy)
2
Red Hot Chili Peppers - Yertle The Turtle

Red Hot Chili Peppers - Yertle The Turtle »           Main Riff:  With Wah-Wah     e-|--------------------------------------------|-