Star Spangled Banner(tab)

Buyuknet15.10.2010 - 02:05 |
 E -----------0-~-~-~-~-4-2-0++++---------------------------------

B 0++++---0+++++++++++------------------------------0--0--(7^)9--

G --1+++1--------------------1*-(1&)3-4--------------------

D ----2----------------------------------------------------------

A ---------------------------------------------------------------

E ---------------------------------------------------------------



E -----------------------------------------0-~-~-~-~-~--

B 7-5-h7p5-'4---2-4-5-5--0-----0--------0--0-~-~-~-~-~--

G -------------------------1-----1---1^^^---------------

D ---------------------------2+++--2--------------------

A ------------------------------------------------------

E ------------------------------------------------------




E 4h5tr-2h4tr-0------------------------------------------------------

B ------------------------------------------------------0-0--7^9**----

G ---------------1&3'1&3&4&6&8^^^^6h8p6h8p6-4h6p4----------------



D -------------------------------------------------------------------

A -------------------------------------------------------------------

E -------------------------------------------------------------------



E -------------------------------------4-4-4-5-7-7----13^(14)--

B 5-(5&)7-^r--5h7p5'4---2-4-5-5-0------------------------------

G --------------------------------1----------------------------

D ----------------------------------2--------------------------

A -------------------------------------------------------------

E -------------------------------------------------------------



E ---- -12*12*12*--- -0-----12^-12^- **12^14^15----- **12^14^15-

B 0*-- -12*12*12*--- -0------------- --------------- -----------

G 0*-- ------------- -0------------- -----------0-0- -----------

D ---- ------------- --------------- --------------- -----------

A ---- ------------- --------------- --------------- -----------

E ---- ------------- --------------- --------------- -----------



E --- --- 5-4-2-4-5-5-----------0--~-~-~--&8p5h8p5p8**- ------

B 0*- --- ----------------------0--~-~-~--------------- 0*------

G 0*- 14- --------------------------------------------- 0*-------

D 0*- --- ------------8---8---8++++~+~+~--------------- --------

A --- 12- --------------7---7-------------------------- --------

E --- --- --------------------------------------------- --------

WB

E ---- 0----- (19^)20-19--15-15--^^^--------15^---

B 0------ 0--0-- ------------------------13^--------

G ------- ------ -----------------------------------

D ------- ------ ----------------------------------

A ------- ------ ----------------------------

E ------- ------ ----------------------------



E -----------------------------------------------------4----4----4-

B 10--9--7h9p7'5-4---2--4--5-----------------------5--5----5----5--

G ----------------------------1*--&3--&4------(2&)2--4----4----4+--

D -----------------------------------------------------------------

A -----------------------------------------------------------------

E -----------------------------------------------------------------



E --------0++++++---------------------------------(0)------------

B ----5+++++5--4-2--2--2-4-5-7-9-10--9-7--h9p7-5--(4&)5---4------

G 4-4------------------------------------------------------------

D ---------------------------------------------------------------

A ---------------------------------------------------------------

E ---------------------------------------------------------------




E ------0--2-&4--5--7-------------0--2--4--5-4h5tr-2h4tr-0--

B 0--0--------0--------------------------------------------------

G ---------------------------------------------------------------

D ---------------------------------------------------------------

A ---------------------------------------------------------------

E ---------------------------------------------------------------




E ----------------0----0---0--

B &5--&8---10-----0----0---0--

G &6--&9---11-----1-----------

D &7--&10--12-----2-----------

A &7--&10--12-----2-----------

Linkback: https://www.buyuknet.com/star-spangled-bannertab-t29523.0.html

Etiket:
 

Bu bilgi size yardimci oldu mu?

EvetHayır
Star Spangled Banner(tab)
Star Spangled Banner(tab)
(Ortalama: 5 üzerinden 2.5 - 2 Oy)
2
Star Spangled Banner(tab)

Star Spangled Banner(tab) » E -----------0-~-~-~-~-4-2-0++++--------------------------------- B 0++++---0+++++++++++------------------------------0--0--(7^)9-- G