Supergirl

Buyuknet15.10.2010 - 02:04
*





          Supergirl













Kullanılan akorlar:

F#m, E, Bm, D, A.



Giriş Tab:

----------------------5-4-5-5h7--5-4-2-44-2---2-------------------

---0-0-0-0h2--5-3-2-------------------------3---------------------

------------------------------------------------------------------

------------------------------------------------------------------

------------------------------------------------------------------

------------------------------------------------------------------





Girişin akor düzeni:



A E F#m D

--------5-------0-1-0-------2-4-2---------2-----------------------

--------5-------0-0-0-------2-2-2---------3-----------------------

--------6-------1-1-1-------2-2-2---------2-----------------------

--------7-------2-2-2-------4-4-4---------0-----------------------

--------7-------2-2-2-------4-4-4---------0-----------------------

--------5-------0-0-0-------2-2-2---------0-----------------------



F#m E

You can tell by the way She walks that she's my girl

Bm D

You can tell by the way She talks she rules the world

F#m E

You can see in her eyes That no one is her Chick

Bm D

She's my girl my Supergirl



A

And then she'd say It's OK

E

I got lost On the way

F#m D

But I'm a Supergirl And Supergirls don't cry

A

And she'd say It's alright

E

I got home Late last night

F#m D

But I'm a Supergirl And Supergirls just fly





And then she'd say That nothing can go wrong

When you're in love What can go wrong

And then she'd laugh The night time into the day

Pushing her fears Further along





A

And then she'd say It's OK

E

I got lost On the way

F#m D

But I'm a Supergirl And Supergirls don't cry

A

And she'd say It's alright

E

I got home Late last night

F#m D

But I'm a Supergirl And Supergirls just fly



Then she'd shout Down the line

Tell me she's got No more time

Cause she's a Supergirl And Supergirls don't cry

Then she'd scream In my face

Tell me to leave leave this place

Cause she's a Supergirl And Supergirls just fly



She's a Supergirl A Supergirl

She's sewing seeds She's burning trees

She's sewing seeds She's burning trees

She's a Supergirl A Supergirl

A Supergirl My Supergirl.

Linkback: https://www.buyuknet.com/supergirl-t29431.0.html

Etiket:
 

Bu bilgi size yardimci oldu mu?

EvetHayır
Supergirl
Supergirl
(Ortalama: 5 üzerinden 2.5 - 2 Oy)
2
Supergirl

Supergirl »           Supergirl Kullanılan akorlar: F#m, E, Bm, D, A. Giriş Tab: