Yavuz Çetin - Cherokee (Tab)

Buyuknet15.10.2010 - 02:02 |
Cherokee

             Gitar I

---------------------------------------------------------------

-------------7-------------------------------------------------

-------------7-------7--------7-----9--------------------------

-------9-x-x---x-x-9-7-9-xx-9-7-x-x-9-7-9----------------------

-0-7-9--------------------------x-x----------------------------

---------------------------------------------------------------

 

Gitar II

---------------------------------------------------------------

-10--10-7------------------------------------------------------

----------9-9-7---9---7--------4----6--------------------------

----------------9---9---9--------7-----------------------------

---------------------------------------------------------------

---------------------------------------------------------------

gitar I'in sonunda

 

Solo

-------------10----13--13-10----13-10-13-10-------10-----------

-------10-12----10-----------10-------------13-10----10-13-----

-10-11---------------------------------------------------------

---------------------------------------------------------------

---------------------------------------------------------------

---------------------------------------------------------------

 

-10--------------------10--------------------------------------

----13-10----13-10--------10-13-10------------------------------

----------13-------12--------------12-12-10----12----10---------

--------------------------------------------12----12----12-10-10

---------------------------------------------------------------

---------------------------------------------------------------

 

--------------------------------------------------------------

--------------------9---9-9-7----7----7------7----7-----------

------------------------------10---10---10-----10---10-7------

---------------------------------------------------------9----

-10-8-10-11-8-------------------------------------------------

--------------8-10--------------------------------------------

 

---------------------7---------7---------7---------7----------

-----------------------10-7-10---10-7-10---10-7-10------------

-9---7-------------9------------------------------------------

---9---9-7-9--------------------------------------------------

-------------8-7-5--------------------------------------------

--------------------------------------------------------------

Linkback: https://www.buyuknet.com/yavuz-cetin-cherokee-tab-t29334.0.html

Etiket:
 

Bu bilgi size yardimci oldu mu?

EvetHayır
Yavuz Çetin - Cherokee (Tab)
Yavuz Çetin - Cherokee (Tab)
(Ortalama: 5 üzerinden 2.5 - 2 Oy)
2
Yavuz Çetin - Cherokee (Tab)

Yavuz Çetin - Cherokee (Tab) »Cherokee              Gitar I ---------------------------------------------------------------