Yavuz Çetin - Onun Şarkısı (Akor&Tab)

Buyuknet15.10.2010 - 02:02
*





          O'nun Şarkısı

 

 
                         --------------------------------------------------------------------------------

------------------------------------------8-10-10b-10b-9b-----9h10-9-10p9-7--5--

------9----/13-9-13-------------10-12-11--8m------------------------------------

-9-11---11-------------------10-----------8m------------------------------------

-----------------------12-14----------------------------------------------------

--------------------------------------------------------------------------------

 

A                C#      G           F#           E

seni ilk gördüğümde Senin olmayı istedim bir an önce (*01*)

 

A               C#     G          F#         E     Am-Bm-C-D

Seni ilk öptüğümde Eskiler silindi dudaklarımdan (*02*)

 

Em                 F#

Hayatıma girdin sıcaklığınla

 

 

Aşkını verdin bana Hiç korkmadan, düşünmeden

 

 

Rüyalarımdaydın derin uykularda

 

 

Kalbini verdin bana Hiç korkmadan, düşünmeden

 

 

ara solo

 

 

Seni ilk sevdiğimde Senin kalmayı istedim tüm ömrümce (*3*)

 

 

Beni ilk üzdüğünde Kaçıp gitmeyi istemedim bir an bile (*4*)

 

 

(nakarat)

 

 

main solo

 

 

(nakarat)

 

 

(*1*) B-13b-13-12p11-10--9h10-9-10p9-7--5-  

 

 

(*2*)

-----------------------------5----7----8-----10--

-----10h12---------------------------------------

----------/13-------/13----/5---/7--/9----/11----

-/11----------14-14------------------------------

-------------------------------------------------

-------------------------------------------------

 

(nakarattaki gitarlar)

 

-/12----------------------- -------15---/19-15v-/19- -----5---7---8----8---10-

-----17-------------------- -15h17---17------------- -------------------------

--------14p12----13/14-12-- ------------------------ ---/5--/7--/9------/11---

--------------12----------- ------------------------ -------------------------

--------------------------- ------------------------ -------------------------

--------------------------- ------------------------ -------------------------

 

-14b-12-------14--

--------11/12-----

------------------

------------------

------------------

------------------

Linkback: https://www.buyuknet.com/yavuz-cetin-onun-sarkisi-akortab-t29326.0.html

Etiket:
 

Bu bilgi size yardimci oldu mu?

EvetHayır
Yavuz Çetin - Onun Şarkısı (Akor&Tab)
Yavuz Çetin - Onun Şarkısı (Akor&Tab)
(Ortalama: 5 üzerinden 2.5 - 2 Oy)
2
Yavuz Çetin - Onun Şarkısı (Akor&Tab)

Yavuz Çetin - Onun Şarkısı (Akor&Tab) »           O'nun Şarkısı