Yavuz Çetin - Sadece Senin Olmak (Tab)

Buyuknet15.10.2010 - 02:02
*





          Sadece Senin Olmak

 

 
                         E ------------15-------------15--------------------------------

B ---15h17---------15h17--------15--------------------------

G ---------------------------------------16pp14---12---12---

D -------------------------------------------------------------

A -------------------------------------------------------------

E -------------------------------------------------------------

 

E -------------------------------------------------------------

B -------------------------------------------------------------

G ---------12-------------------------------------------------

D ---12---------12-------------------------------------------

A ---------------------14---12---10------10---12---10-----

E -------------------------------------10---------------------

 

E-------------------------------------------------------------

B-------------------------------------------------------------

G---------------------------9---12---9---12---14---12-----

D--9---12---12---9---12------------------------------------

A------------------------------------------------------------

E------------------------------------------------------------

 

E -----------------------------------------------------------------------------------

B -----------------------------------------------------------------------------------

G ---15h16---17---18---19---16--------------------------------------16--19--16--

D -----------------------------------17--------17---19----17---19-----------------

A ----------------------------------------17-----------------------------------------

E -----------------------------------------------------------------------------------

 

E ---17---15--15------------------------------------------

B ------------------17-------15h17--17------15h17--17--

G ----------------------16--------------- 16---------------

D ----------------------------------------------------------

A ----------------------------------------------------------

E ----------------------------------------------------------

 

E---15-----------------------------------------------------

B-------17---15---17---------15-------------------------

G------------------------16--------17---16--------------

D----------------------------------------------19---17--

A------------------------------------------------------------

E------------------------------------------------------------

 

E --------------------------------------------------------

B -------------------------------------------------------

G -----------------------------16--19--19--16--19/21--

D --17--------17--19--17-------------------------------

A -------17-----------------------------------------------

E --------------------------------------------------------

 

E------19--17/15--15-----15-----15-----15--17--15---

B--20-----------------15----15-----15---------------

G------------------------------------------------------

D------------------------------------------------------

A------------------------------------------------------

E------------------------------------------------------

 

E --19h20---19/17---15---19h20---19/17---15-------

B ------------------------------------------------------

G -------------------------------------------------------

D -------------------------------------------------------

A --------------------------------------------------------

E --------------------------------------------------------

 

E----20---19/15---15---14h15---14---------------------------

B--------------------------------------15----------------------

G--------------------------------------------16--15--14-------

D---------------------------------------------------------------

A---------------------------------------------------------------

E---------------------------------------------------------------

 

E --------14------12-----10-----8----7----5-----3----2----0-------4/8----------

B --------------------------------------------------------------0------------

G --12h14-------14-----12----10----9----7-----5----4-----2----0--------------

D ----------------------------------------------------------------------------

A ----------------------------------------------------------------------------

E ----------------------------------------------------------------------------

Linkback: https://www.buyuknet.com/yavuz-cetin-sadece-senin-olmak-tab-t29323.0.html

Etiket:
 

Bu bilgi size yardimci oldu mu?

EvetHayır
Yavuz Çetin - Sadece Senin Olmak (Tab)
Yavuz Çetin - Sadece Senin Olmak (Tab)
(Ortalama: 5 üzerinden 2.5 - 2 Oy)
2
Yavuz Çetin - Sadece Senin Olmak (Tab)

Yavuz Çetin - Sadece Senin Olmak (Tab) »           Sadece Senin Olmak                              E