Yavuz Çetin - Yaşamak İstemem (Tab)

Buyuknet15.10.2010 - 02:02
*





          Yaşamak İstemem

 

 
                         E----------------------

B----------------------

G-----9-7--------------

D---------9-8-7--------

A---------------10-----

E----------------------

 

1.

E-----------------------

B--------8--10-8-10-8---

G---7-9---------------9-  X3

D-----------------------

A-----------------------

E-----------------------

 

E--------------------------

B--------------------------

G---7-9---9-7--------------

D-------------9-8-7--------

A-------------------10-----

E--------------------------

 

E-----------------------

B--------8--10-8-10-8---

G---7-9---------------9-  

D-----------------------

A-----------------------

E-----------------------

 

2.

E------------------------

B--------8--10-12-10-8---

G---7-9----------------9-

D------------------------

A------------------------

E------------------------

 

 

E-----------------------

B--------8--10-8-10-8---

G---7-9---------------9-  

D-----------------------

A-----------------------

E-----------------------

 

E--------------------------

B--------------------------

G---7-9---9-7--------------

D-------------9-8-7--------

A-------------------10-----

E--------------------------*

 

 

Gitar2:

E--------------------------------------------------12--

B-----15-12----------------------------------12-15--

G--9--------14-14-12-14-------12-14-14-12-14----

D-----------------------14-14-------------------------

A------------------------------------------------------

E------------------------------------------------------

Linkback: https://www.buyuknet.com/yavuz-cetin-yasamak-istemem-tab-t29320.0.html

Etiket:
 

Bu bilgi size yardimci oldu mu?

EvetHayır
Yavuz Çetin - Yaşamak İstemem (Tab)
Yavuz Çetin - Yaşamak İstemem (Tab)
(Ortalama: 5 üzerinden 2.5 - 2 Oy)
2
Yavuz Çetin - Yaşamak İstemem (Tab)

Yavuz Çetin - Yaşamak İstemem (Tab) »           Yaşamak İstemem                              E---------------------- B----------------------