Yngwie Malmsteen - Motherless Child (Tab)

Buyuknet15.10.2010 - 02:02 |
          Intro

|-------------------||-----------------------------|-----------------------|

|-------------------||-----------------------------|-----------------------|

|--xp.s------------||o----------------------------|-----------------------|

|--x---------------||o---5--------7--------9------|----7~-----------------|

|-------------------||----7--------9--------10-----|--------10--9--7--6----|

|----------1513p0--||-------0--0-----0--0------0--|-0---------------------|

 

 

|--------------------------|---------------------------|--------------------

|--------------------------|---------------------------|--------------------

|--------------------------|--------------------7--9~--|--------------------

|----------7---------------|----------7--9--10---------|-5--------7---------

|-7--------9--------10--9--|-7--9--10------------------|-7--------9---------

|-0--0--0-----0--0---------|---------------------------|----0--0-----0--0---

 

 

---------|----------------------|-----------------------|-8-7-5-------------

---------|----------------------|-----------------------|-------8-7-54-----

---------|----------------------|-----------------------|---------------7-5-

---9-----|-----7~---------------|----------7---------9--|-------------------

--10-----|---------10--9--7--6--|-7--------9--------10--|-------------------

------0--|--0-------------------|-0--0--0-----0--0------|-------------------

 

 

-------------||

-------------||

--4---------o||

----7-5p4---o||

-------------||

-------------||

Verse
 

With ..


|------------|-----------|-------------------|-----------------------------|

|------------|-----------|-------------------|-----------------------------|

|------------|-----------|-------------------|-----------------------------|

|------------|-----------|-------------------|-----------------------------|

|--7---------|---7-------|----5--------------|-----------------------------|

|--0---0-----|-----------|---------2p0--0----|--3p0---2---0---0---0---0----|

 

 

knowing ..

 

|---------------|--------------|-----------------|-------------------------|

|---------------|--------------|-----------------|-------------------------|

|---5~----------|--------------|--2--------------|-------------------------|

|---5~-w/bar----|--------------|--0--------------|-------------------------|

|---3~----------|--------------|-----------------|-------------------------|

|---------------|--------------|------2p0--0--0--|-3p0--2p0--0--0--0--0----|

 

 

Set me ..

 

|-------------|-------------------|-----------------|-----------------------|

|-------------|-------------------|-----------------|-----------------------|

|-------------|-------------------|--2--------------|-----------------------|

|--2----------|--x----xx-p.s.---|--0--------------|-----------------------|

|--2----------|-------------------|-----------------|-----------------------|

|--------0----|-------------------|------0--2p0--0--|-3p0--2--0--0--0--0--0-|

 

 

inspired ..

 

|---------------|--------------|----------------|--------------------------|

|---------------|--------------|----------------|--------------------------|

|---------------|--------------|----------------|--------------------------|

|---5-----------|--------------|--4-------------|--------------------------|

|---3----2------|--0-----------|--2------0------|--------------------------|

|---------------|---------3----|----------------|---3-----2----------------|

 

 

You ..

As ..

 

||--------------|------------|---------------|-----------------------------|

||--------------|------------|---------------|-----------------------------|

||o-------------|------------|--2------------|-----------------------------|

||o---2---------|------------|--0------------|-----------------------------|

||----2---------|------------|---------------|-----------------------------|

||----0---------|------------|-------2p0--0--|-3p0--2p0--0-0-0-0-----------|

 

 

But ..

you ..

 

|--------------|-----------------|-----------------|-----------------------|

|--------------|-----------------|-----------------|-----------------------|

|--5-----------|-----------------|--2--------------|-----------------------|

|--5-----------|-----------------|--0--------------|-----------------------|

|--3-----------|-----------------|-----------------|-----------------------|

|--------0-----|-0--0---0--0--0--|------0--2p0--0--|-3p0--2p0--0--0--0--0--|

 

 

I ..

You ..

 

|-------------|---------------|------------------|-------------------------|

|-------------|---------------|------------------|-------------------------|

|-------------|---------------|---2--------------|-------------------------|

|--2----------|---------------|---0--------------|-------------------------|

|--2----------|---------------|------------------|-------------------------|

|--0----------|---------------|------0--2p0--0---|-3p0--2p0--0--0--0--0----|

 

 

Taught ..

Though ...

 

|--------------|----------------|-------------|----------------------------|

|--------------|----------------|-------------|----------------------------|

|--5-----------|----------------|--4----------|----------------------------|

|--5-----------|----------------|--4----------|----------------------------|

|--3------2----|-0--------------|--2-----0----|----------------------------|

|--------------|---------3------|-------------|----3-------2---------------|

 

 

Chorus

 

Sometimes ..

 

|---------------|----------------|----------------------|------------------|

|-------0-------|----------------|---------0------------|------------------|

|-------0-------|---5------------|---------0------------|---------4~-------|

|-------2-------|---5------------|---------0------------|----4-------------|

|---------------|---3-------3---|----------------7--6--|------------------|

|--0------------|----------------|---3------------------|------------------|

 

 

Left ...

 

|-------------------|------------------|----------|------------------------|

|---------0---------|-------3~---------|----------|--5---------4-----------|

|---------0---------|-------2~---------|--0-------|--4---------4-----------|

|---------2---------|------------------|--0-------|--4---------4-----------|

|--2----------------|-------------0----|----------|--2---------2-----------|

|--0-----------3----|--2---------------|--3-------|------------------------|

 

 

Nowhere ...

 

|---------------|-------------------|---------------------|----------------|

|---------0-----|-------------------|---------------------|----------------|

|--0------0-----|---5---------------|-------0-------------|---------4~-----|

|--2------2-----|---5---------------|-------0-------------|---4------------|

|---------------|---3--------3-----|--2----------7---6---|----------------|

|---------------|-------------------|--3------------------|----------------|

 

 

Stumbling...

 

|-------------|---------------|-------------|------------------------------|

|-------------|---------------|-------------|------------------------------|

|-------------|---------------|-------------|------------------------------|

|--5----------|---------------|--4----------|------------------------------|

|--3----2-----|---0-----------|--2-----0----|------------------------------|

|-------------|---------3-----|-------------|---3------2-------------------|

 

 

Ending 1

You.

                                                                  1/2

|------------------------|------------------|--------------------|----------|

|------------------------|------------------|--------------------|----------|

|------------------------|------------------|--------------------|11b-rbp9~-|

|-------7---------9------|----7~------------|----------7---------|----------|

|-------9--------10------|--------10-9-7-6--|-7--------9---------|----------|

|-0--0-----0--0------0---|-0----------------|-0--0--0----0--0--0-|----------|

 

 

|-------------------------|----------------|-------------------------------|

|-------------------------|----------------|-------------------------------|

|-------------------------|----------------|-------------------------------|

|----------7---------9----|----7~----------|----------7--------9-----------|

|----------9--------10----|-------10-9-7-6-|-7--------9-------10-----------|

|-0--0--0-----0--0-----0--|-0--------------|-0--0--0----0--0---------------|

 

 

|-8p7p5-------------------------||

|-------8-7-5-------------------||

|-------------8-7-54----------o||

|---------------------7-5-4----o||

|-------------------------------||

|-------------------------------||

 

 

Ending 2

you.

|----------------------|------------------|--------------------------------|

|----------------------|------------------|--------------------------------|

|----------------------|------------------|--------------------------------|

|-------7--------9-----|----7~------------|--------------------------------|

|-------9-------10-----|--------10-9-7-6--|----------9--------10p0---------|

|-0--0----0--0------0--|-0----------------|-0--0--0-----0--0---------------|

 

 

|-20p19p17--------------------------------|

|----------20-19p17-----------------------|

|-------------------20-19-1716-----------|

|-------------------------------19p17p16--|

|-----------------------------------------|

|-----------------------------------------|

 

 

Instrumental Interlude  Guitar Solo

 

||-----8-8h12p8-----10-12p10-8-|-----5-5h8p5-----5h8-7-5-|------7h10p7-----

||8--8----------8-8-------------|-7-7---------7-7---------|8-8-8--------8---

||------------------------------|-------------------------|-----------------

||------------------------------|-------------------------|-----------------

||------------------------------|-------------------------|-----------------

||------------------------------|-------------------------|-----------------

 

 

-7h10-8----|-0---3h7p3---3-7p5p3--|-------5h8p5-----5h8-7-5-|-------2h5p2---

--------10-|---5-------5----------|-7-7-7-------7-7---------|-4-4-4-------4-

-----------|----------------------|-------------------------|---------------

-----------|----------------------|-------------------------|---------------

-----------|----------------------|-------------------------|---------------

-----------|----------------------|-------------------------|---------------

 

             ending 1

 

--2-5p2----|--7p3---7p3-----5h8p5----|-10p7---7-10p7-12-12p8---0----------||

--------4--|------5-----5-5-------7--|------8----------------8------------||

-----------|-------------------------|------------------------------------||

-----------|-------------------------|------------------------------------||

-----------|-------------------------|------------------------------------||

-----------|-------------------------|------------------------------------||

 

ending 2

 

||-7p3---7p3---3-8p5---5-8p5---5-|-10p7---7-10p7---8-12p8---12-|-15p0------

||-----5-----5-------7-------7---|------8--------8--------8-----|------13---

||-------------------------------|------------------------------|-----------

||-------------------------------|------------------------------|-----------

||-------------------------------|------------------------------|-----------

||-------------------------------|------------------------------|-----------

 

 

--------12-15p12----------12-|-15p12----------12-19p15----------18-|

-----13----------13----13----|-------12----12----------17----17----|

--12----------------12-------|----------12----------------16-------|

-----------------------------|-------------------------------------|

-----------------------------|-------------------------------------|

-----------------------------|-------------------------------------|

 

 

|-18p15-------12-15p12-15p12--------12-15p14p12-|15-14-12-11-12-14-15-14-12-

|-------17-14----------------14-----------------|---------------------------

|-------------------------------15--------------|---------------------------

|-----------------------------------------------|---------------------------

|-----------------------------------------------|---------------------------

|-----------------------------------------------|---------------------------

 

 

--12h14-15-12-14-15-|-17-14-15-17-19-17-15-14-15----14h15p14----|-----------

--------------------|----------------------------17----------17-|-16--------

--------------------|-------------------------------------------|----17p14--

--------------------|-------------------------------------------|-----------

--------------------|-------------------------------------------|-----------

--------------------|-------------------------------------------|-----------

 

 

-----------14------------------|----------------0----------|---17bf--------|

-----16h17----17p16------------|----------------0----------|---------------|

--17----------------17p14------|--9bf--rb9-8~---0----------|---------------|

--------------------------16--|---------------------------|---------------|

-------------------------------|---------------------------|---------------|

-------------------------------|--------------------12/15-|---------------|

 

                                                               1/2     1/2

|--rb17~-----17~---|---15-------------14-15-19p17p15----17p15-|-----15------

|------------------|17----19-17-15h17----------------19-------|19b-----19b--

|------------------|------------------------------------------|-------------

|------------------|------------------------------------------|-------------

|------------------|------------------------------------------|-------------

|------------------|------------------------------------------|-------------

 

 

------------|-15-19p17p15-19-19p17p15-14-19-15-14-12-15-14-|-12-10-14-12-10-

--15h17h19--|----------------------------------------------|----------------

------------|----------------------------------------------|----------------

------------|----------------------------------------------|----------------

------------|----------------------------------------------|----------------

------------|----------------------------------------------|----------------

 

 

--8-12p8-10-12-10--8-----|-8-7------------|---------------|--------8-7------

---------------------10--|------10bf~-----|-rb10--10bf----|-7-8h10-----10p8-

-------------------------|----------------|---------------|-----------------

-------------------------|----------------|---------------|-----------------

-------------------------|----------------|---------------|-----------------

-------------------------|----------------|---------------|-----------------

 

 

----------------|---14/19-19-19--14-14-14-|-15p14p12-11-11-11--------------

--p7------------|--------------------------|-------------------13-12p11----

-----9p7----9p7p|0-------------------------|--------------------------------

---------10-----|--------------------------|--------------------------------

----------------|--------------------------|--------------------------------

----------------|--------------------------|--------------------------------

 

 

---------------|-------------------------------------|----------------------

---------------|-------------------------------------|----------------------

--9-11-12-11p9-|-8-9h11-9-8h9p8----------------------|----------------------

---------------|----------------10--8-10p9---7-------|----------------------

---------------|---------------------------9---10p9--|--------6h7h9-9-10-12-

---------------|-------------------------------------|-10p8p7---------------

 

 

--------------|----------------------------8--7--|-8h10p8p7---------19-----|

--------------|----------------------------------|----------10p8p7/--------|

---------11p9-|-11p9-8----9p8------8-------------|-------------------------|

--8-9-11------|--------10-----10-9---10-9--------|-------------------------|

--------------|----------------------------------|-------------------------|

--------------|----------------------------------|-------------------------|

 

  1/2

|-22b---22b---22bf-||------8-12p8-12p8-----8-12-10-8-|-------5h8p5-----5----

|------------------||-8--8-------------8-8-----------|-7-7-7-------7-7------

|------------------||o-------------------------------|----------------------

|------------------||o-------------------------------|----------------------

|------------------||--------------------------------|----------------------

|------------------||--------------------------------|----------------------

 

 

--8p7--5--|-----7h10-7-----7-10-8-7-|-0---3-7p3---3-7-5-3-|-----5h8p5------

----------|-8-8--------8-8-----------|---5-------5---------|-7-7-------7----

----------|--------------------------|---------------------|----------------

----------|--------------------------|---------------------|----------------

----------|--------------------------|---------------------|----------------

----------|--------------------------|---------------------|----------------

 

 

--5-8-7-5-|-----2h5p2---2-5p2----|-7p3---3-7p3---5h8p5---5h8p5---|-10p7---7-

----------|-4-4-------4-------4--|-----5-------5-------7-------7-|------8---

----------|----------------------|-------------------------------|----------

----------|----------------------|-------------------------------|----------

----------|----------------------|-------------------------------|----------

----------|----------------------|-------------------------------|----------

 

 

--10p7----12p8--12-||

--------8----------||

------------------o||

------------------o||

-------------------||

-------------------||

 

2nd guitar play a diatonic third below

 

 

|-------------------------|-------------------------|------------------------|

|-13-17-16-17-13-17-16-17-|-12-17-16-17-12-17-16-17-|-11-11-14-11-11-11-14-11|

|-------------------------|-------------------------|------------------------|

|-------------------------|-------------------------|------------------------|

|-------------------------|-------------------------|------------------------|

|-------------------------|-------------------------|------------------------|

 

 

|-11tr12--|---7tr8------|----------|---------------------------------------|

|---------|-------------|--7tr8----|---------------------------------------|

|---------|-------------|----------|---------------------------------------|

|---------|-------------|----------|---------------------------------------|

|---------|-------------|----------|---------------------------------------|

|---------|-------------|----------|---------------------------------------|

 

 

 

Chorus

 

 

Outro solo

 

|-----------------------------------14-11-12-15-12-15-17-14-17-|-19~--------

|--------------------------13-11h12----------------------------|------------

|--------12-11-12----------------------------------------------|-----12-----

|-14~-14----------14-14-14-------------------------------------|--------14--

|--------------------------------------------------------------|------------

|--------------------------------------------------------------|------------

 

 

----------------------------------------------------------------------------

-----------------------------------------------------------------------15-17

--12/14-16h17p16p14----------17/19p17p16-------19h20p19p17-19-17-17-16------

--------------------17p16p14-------------19p17------------------------------

----------------------------------------------------------------------------

----------------------------------------------------------------------------

 

 

-----------------|----------------------------------------------------------

-15-15-----------|----------------------------------------------------------

-------17-17-17--|-16-14-14-16p14-------17p16p14----------------------14-16-

-----------------|----------------17-16----------17-16-17-16-14-16-17-------

-----------------|----------------------------------------------------------

-----------------|----------------------------------------------------------

 

                     tremolo picking---

------------------|--12---14----15---17----19~-15-14---------|------------|

------------------|------------------------------------17-15-|------------|

--14-12----12-----|-------------------------------------------|------------|

--------14----14--|-------------------------------------------|----2-------|

------------------|-------------------------------------------|----2-------|

------------------|-------------------------------------------|----0-------|

Linkback: https://www.buyuknet.com/yngwie-malmsteen-motherless-child-tab-t29354.0.html

Etiket:
 

Bu bilgi size yardimci oldu mu?

EvetHayır
Yngwie Malmsteen - Motherless Child (Tab)
Yngwie Malmsteen - Motherless Child (Tab)
(Ortalama: 5 üzerinden 2.5 - 2 Oy)
2
Yngwie Malmsteen - Motherless Child (Tab)

Yngwie Malmsteen - Motherless Child (Tab) »          Intro |-------------------||-----------------------------|-----------------------|