Yngwie Malmsteen - Never Die (Tab)

Buyuknet15.10.2010 - 02:02 |
tune down 1/2 step

   repeat 3 times

||-----------|-----------------|-----------------|------------||

||-----------|-----------------|-----------------|------------||

||:----------|-----------------|-----------------|-----2-2.--:||

||:----------|-------3---------|---3-------------|-----2-2.--:||

||---3-5-3-2-|-3-2-0---0-0-3-0-|-0---0-0-3-5-3-2-|-3-2-0-0.---||

||-----------|-----------------|-----------------|------------||

 

 

   repeat 3 times

||------------------|-----------------|-----------------|------------||

||------------------|-----------------|-----------------|------------||

||:-----------------|-----------------|-----------------|-----2-2.--:||

||:-----------------|-------3---------|---3-------------|-----2-2.--:||

||--0-0-0-0-3-5-3-2-|-3-2-0---0-0-3-0-|-0---0-0-3-5-3-2-|-3-2-0-0.---||

||------------------|-----------------|-----------------|------------||

 

 

||------------|-----------|-----------|-----------|-----------|----------= -|

||------------|-----------|-----------|-----------|-----------|----------= -|

||:-----------|-----------|-----------|-----------|-----------|--------= ---|

||:-----------|-----------|-----------|-----------|-----------|--------= ---|

||------------|-----------|-----------|-----------|-----------|----------= -|

||--0000-0000-|-0000-0000-|-0000-0000-|-0000-0000-|-0000-0000-|-0000-0000= -|

 

1. Forever   and   ever   ...

2. you   mortal   fools   ...

 

 

3. don't  come  and  tell  m....

4. no  walls  in  this  world  ...

 

 

|-----------------|-------------------||

|-----------------|-------------------||

|-----------------|--------7-9-10-9--:||

|---------------6-|-7-9-10-----------:||

|---------5-7-8---|-------------------||

|-4-5-7-8---------|-------------------||

 

  end)

  win)

 -ing)

 want)

 

 

Chorus

 

E  =3D 13321x

B  =3D x355xx

F# =3D 35543x

G# =3D x022xx

 

             E             B  B       F#   F#      G#    =20

||---------------|-----------------|-------------------------------|

||-----------1---|-----------------|-------------------------------|

||:----------2---|-----------------|-------------------------------|

||:----------3---|-----------2-----|---------------------3---------|

||-----------3---|--------3-----3--|----------2----3-0-0---0-0-0-0-|

||-----------1---|-----------------|--3-----5----------------------|

 

   like the sky    I'm perpetual      I'll ...

 

|-----------------|-----------|------------------|-----------------|

|-----------------|-----------|------------------|-----------------|

|-----------------|-------2.--|------------------|-----------------|

|-----------------|-------2.--|------------------|-------3---------|

|-0-0-0-0-3-5-3-2-|-3-2-0-0.--|-0-0-0-0--0-0-0-0-|-3-0-0---0-0-0-0-|

|-----------------|-----------|------------------|-----------------|

|-----------------|------------||

|-----------------|------------||

|-----------------|-------2.--:||

|-----------------|-------2.--:||

|-0-0-0-0-3-5-3-2-|-3-2-0-0.---||

|-----------------|------------||

 

 

 

Spoken

 

 

|---------------6---------------3-----------------|

|-5-------------4---------------------------------|

|-------------------------------5--------10-------|

|-7---------------------------------------8-------|

|-------------------------------------------------|

|-------------------------------------------------|

    "your gods may come and go      eons ...

 

 

|--------------------6------3---------------------------------------|

|-5------------------4----------------------------------------------|

|---------------------------5-------------------10------------------|

|-7----------------------------------------------8------------------|

|-------------------------------------------------------------------|

|-------------------------------------------------------------------|

 

     but in the end i know     I shall ......

 

 

 

Interlude

 

 

|-12-8---------8--12-8--------8-|-10-7--------7--10-7--------7-|

|------10---10---------10--10---|------9----9---------9----9---|

|---------9---------------9-----|--------10-------------10-----|

|-------------------------------|------------------------------|

|-------------------------------|------------------------------|

|-------------------------------|------------------------------|

 

 

|-8-5-------5--8-5-------5-|-7-4-------4--7-4-------4-|

|-----5---5--------5---5---|-----6---6--------6---6---|

|-------5------------5-----|-------7------------7-----|

|--------------------------|--------------------------|

|--------------------------|--------------------------|

|--------------------------|--------------------------|

 

 

|-10-7--------7--10-7--------7-|-12-8---------8--12-8---------8-|

|------9----9---------9----9---|------10---10---------10---10---|

|--------10-------------10-----|---------9---------------9------|

|------------------------------|--------------------------------|

|------------------------------|--------------------------------|

|------------------------------|--------------------------------|

 

 

|-14-11----------11--14-11----------11---16-|

|-------13----13-----------13----13---------|

|----------14-----------------14------------|

|-------------------------------------------|

|-------------------------------------------|

|-------------------------------------------|

Linkback: https://www.buyuknet.com/yngwie-malmsteen-never-die-tab-t29353.0.html

Etiket:
 

Bu bilgi size yardimci oldu mu?

EvetHayır
Yngwie Malmsteen - Never Die (Tab)
Yngwie Malmsteen - Never Die (Tab)
(Ortalama: 5 üzerinden 2.5 - 2 Oy)
2
Yngwie Malmsteen - Never Die (Tab)

Yngwie Malmsteen - Never Die (Tab) »tune down 1/2 step    repeat 3 times ||-----------|-----------------|-----------------|------------||