Yngwie Malmsteen - Resurrection (Tab)

Buyuknet15.10.2010 - 02:02 |
------------------------------------------------------------------------

------------------------------------------------------------------------

------------------------------------------------------------------------

9--------8--------7--------10-------9--8--------------------------------

7--7--7--7--7--7--7--7--7--7--7--7--7--7-------repeat-------------------

------------------------------------------------------------------------

   .  .     .  .     .  .     .  .

------------------------------------------------------------------------

-----------------------------------------------------(This is repeated)-

-------------------------7h9p7-----------------------(a-few-times-----)-

--9--5--7---------7h9h10-------10p9p7-----------------------------------

--7--3--5--7h9h10---------------------10p9p7----------------------------

---------------------------------------------10p8p7~ -------------------

 
 

------------------------------------------------------------------------

------------------------------------------------------------------------

------------------------------------------------------------------------

--8-9-----------------8-9-------------8-9--4-5-6-7-8-9------------------

--6-7-7-7-7-7-7-7-7..-6-7-7-7-7-7-...-6-7--2-3-4-5-6-7---3~~ -----------

-------------------------------------------------------0----------------

      . . . . . .         . . . .

 
------------------------------------------------------------------------

------------------------------------------------------------------------

------------------------------------------------------------------------

---------------------4------5-----2-------------------------------------

-3-2-0-3-2-0-----2---5--5-2-3-2~--0-------------------------------------

-------------3-2-0------3------------6~~---//14-15-17-15-14-15-17------

 

--------------------------------------------------15-17-19-17p15h17-19^f

-----------------------------------------15-17-19-----------------------

-------------------------------(14-16-17)X-2----------------------------

-----------14-16-17-16-14-16-17-----------------------------------------

-14-15-17---------------------------------------------------------------

------------------------------------------------------------------------
 

That basically makes up all the verses and interludes

make your own interludes..all on E minor scale. Keep it smooth and cool!

The Solo

-12p7-----11p7------14p9------16p13----------13-s-19p16----------16-19^f

------8--------7---------9----------14----14------------18----18--------

--------9--------8---------10----------13------------------18-----------

------------------------------------------------------------------------

------------------------------------------------------------------------

------------------------------------------------------------------------


   This switch from Emin to F#min is really cool, I think
 

14p9----------9-14p9-14p9----------9-13-14-9-10----9------------------------

-----10----10-------------10----10--------------12---10-12-9-10----9--------

--------11-------------------11---------------------------------11---10-11~~

----------------------------------------------------------------------------

----------------------------------------------------------------------------

----------------------------------------------------------------------------

 

10p7-------7-10p7-10p7-------7-12p9----9-14p9----------9-14p9-14p9-----

-----7---7-------------7---7--------10--------10----10-------------10---

-------7-----------------7-----------------------11-------------------11

------------------------------------------------------------------------

------------------------------------------------------------------------

------------------------------------------------------------------------

 

 ---9-13p9----9-14p9----------9-14p9-14p9----------9-13-14-9-10----9----

10--------10--------10----10-------------10----10--------------12-------

-----------------------11-------------------11--------------------------

------------------------------------------------------------------------

------------------------------------------------------------------------

------------------------------------------------------------------------

 

---------------------------------------------------------------14-16-16p14--

10-12-9-10----9---------------------------------------------14------------14

-----------11---10-11-7-10-6-7-4-6---4-------------------14-----------------

-----------------------------------7---6-7-4-6-3-4~~-/16--------------------

----------------------------------------------------------------------------

----------------------------------------------------------------------------

 

19^-19p17h19-17p16^h-16----16-------------17-19-21-22~-21-19----------------

------------------------19----19-18-19-21--------------------12^~-12~-10-9--

----------------------------------------------------------------------------

----------------------------------------------------------------------------

----------------------------------------------------------------------------

----------------------------------------------------------------------------

 

----------------------------------------------------------------------------

10-10-10-12-10-9-7-10-9-7-6-9-7-6---7-6-----6-------------------------------

----------------------------------7-----7-6---7-6-4-7-6-4---6-4-------------

----------------------------------------------------------7-----7-6h7p6p4---

----------------------------------------------------------------------------

----------------------------------------------------------------------------

 

--------------------------------------------(7p4---4)(10p7---7)(13p10----10)-

-------------------------------------------------6----------9----------12----

-13--13/14--146---------------4^-4p2h4p2p0----------------------------------

-----------------------------------------------------------------------------

-11--11/12--124-4-2h4p2p0h2~------------------------------------------------

-----------------------------------------------------------------------------
 

(16p13----13)(19p16----16)-19^~~~~~~----|-----------------------------------

-------15------------18-----------------|-----------------------------------

----------------------------------------|-----------------------------------

----------------------------------------|--------6-6------------------------

----------------------------------------|---4----4-4--2---------------------

----------------------------------------|---2---------0--/12^~~~-----------
 

And then return to chorus

Linkback: https://www.buyuknet.com/yngwie-malmsteen-resurrection-tab-t29347.0.html

Etiket:
 

Bu bilgi size yardimci oldu mu?

EvetHayır
Yngwie Malmsteen - Resurrection (Tab)
Yngwie Malmsteen - Resurrection (Tab)
(Ortalama: 5 üzerinden 2.5 - 2 Oy)
2
Yngwie Malmsteen - Resurrection (Tab)

Yngwie Malmsteen - Resurrection (Tab) »------------------------------------------------------------------------ ------------------------------------------------------------------------