Yngwie Malmsteen - Rising Force (Tab)

Buyuknet15.10.2010 - 02:02 |
E ||---6------------|-----------------|-8---------------|----------------||

B ||---7------------|-----------------|-8---------------|----------------||

G ||o--6------------|-----------------|-9---------------|---------------o||

D ||o---------------|-----------------|-----------------|---------------o||

A ||----------------|-----------------|-----------------|----------------||

E ||----------------|-----------------|-----------------|----------------||

 

                                                                  3 times

E ||----------------|-----------------|-----------------|----------------||

B ||----------------|-----------------|-----------------|----------------||

G ||o---------------|-----------------|-----------------|---------------o||

D ||o---------------|-----------------|-----------------|---------------o||

A ||----------------|-----------------|-----------------|----------------||

E ||-0-0-0-0---0--0-|---0---0-0-0-0-0-|-0-0-0-0---0---0-|---0---0-0-0-0--||

 

 

E |-----------------|-----------------|-----------------|-----------------|

B |-----------------|-----------------|-----------------|-----------------|

G |-4---------------|-----------7-----|-----------------|-----------------|

D |-5---------------|-----------7-----|-----------------|-----------------|

A |-5h7---------5h7-|-----5h7---5-----|-5h7-----------7-|---5-------------|

E |-------0-0-0-----|-0-0-------------|-----0-0-0-0-0---|-----7-6-5-3-----|

 

E |-----------------|-----------------|-----------------|-----------------|

B |-----------------|-----------------|-----------------|-----------------|

G |-----------------|-----------7-----|-----------------|-----------------|

D |-----------------|-----------7-----|-----------------|-----------------|

A |-5h7---------5h7-|-----5h7---5-----|-5h7-----------7-|---5-------------|

E |-------0-0-0-----|-0-0-------------|-----0-0-0-0-0---|-----7-6-5-3-----|

 

E ||----------------|-----------------|-----------------|----------------||

B ||----------------|-----------------|-----------------|----------------||

G ||o---------------|-----------------|-----------------|---------------o||

D ||o---------------|-----------------|-----------------|---------------o||

A ||--5h7-------5h7-|-----5h7---5-----|-5h7-----------7-|-5--------------||

E ||------0-0-0-----|-0-0-------------|-----0-0-0-0-0---|---7-6-5-0-3h0--||

 

E |-----------------|-----------------|-----------------|-----------------|

B |-----------------|-----------------|-----------------|-----------------|

G |--5----7----9----|-----------------|---4----5----7---|-----------------|

D |--7----9----10---|-----------------|---5----7----9---|-----------------|

A |-----------------|-----------------|-----------------|-----------------|

E |-----------------|-----------------|-----------------|-----------------|

 

E |-----------------|-----------------|-----------------|----harm.--------|

B |-----------------|-----------------|-----------------|-----------------|

G |---2----4----5---|-----------------|-----------------|-----------------|

D |---4----5----7---|-----------------|--52--74--95--|-----------------|

A |-----------------|-----------------|--3----5----7----|-----------------|

E |-----------------|-----------------|-----------------|------7----------|

 

 

 

                                           Repeat 4 times for each verse

E ||-----------------|-----------------|-----------------|---------------||

B ||-----------------|-----------------|-----------------|---------------||

G ||o----------------|-----------------|-----------------|--------------o||

D ||o----------------|-----------------|-----------------|--------------o||

A ||--5h7------------|-----------------|---------------7-|-5-------------||

E ||-----0-0-0-0-0-0-|-0-0-0-0-0-0-0-0-|-0-0-0-0-0-0-0---|---7-6-5-0-3h0-||

 

 

     Out of the darkness the voices are calling

     Riding the wings of a song

     The fury is screaming and Heaven is falling

     I feel it coming on strong

 

 

     Searching my soul now I find something else

     I take my life in my hands

     Through the gates of Heaven to the altars of Hell

     Power is at my command

 

 

 

      The lightning   strikes           *****ing the night

E |-----------------|-----------------|-----------------|-----------------|

B |-----------------|-----------------|-----------------|-----------------|

G |-----------------|-----------------|-----------------|-----------------|

D |-----------------|-----------------|-------------5---|-----------------|

A |--------------5--|--5-5-5-5-5--5---|-------------3---|--3-3-3-3-3-3----|

E |-5--5-5-5-5-5----|-------------3---|--3-3-3-3-3------|-----------------|

 

    It feels like     never         before

E |-----------------|-----------------|-----------------|-----------------|

B |-----------------|-----------------|-----------------|-----------------|

G |-----------------|-----------------|-----------------|--4-----5--------|

D |-----------------|-----------------|---5-----7-------|--5-----7--------|

A |--5--5-5-5-5-5-6-|--6-6-6-6-6-6----|---7-----9-------|-----------------|

E |-----------------|-----------------|-----------------|-----------------|

 

    Thunder and       spark    In the  heart of the dark

E |-----------------|-----------------|-----------------|-----------------|

B |-----------------|-----------------|-----------------|-----------------|

G |--------------7--|--------7--------|---------------5-|-(5)-------------|

D |-7------------7--|--------7--------|--5------------5-|-(5)-------------|

A |-7------------5--|--5-5-5-5-5--5---|--5------------3-|-(3)-------------|

E |-5--5-5-5-5-5----|-----------------|--3--3-3-3-3-3---|-----------------|

 

         I hear a     Rising         

         I feel a     Rising         

E |-----------------|-----------------|

B |-----------------|-----------------|

G |--7--------------|-----------------|

D |--7--------------|-----------------|

A |--5--5-5-5-5-5-6-|---6-----6-------|

E |-----------------|-----------------|

 

   __________________________________________________  ___________

  | 1.

    Force

E |------------------------------------11-12--|-----------------|

B |------------------------------12h13--------|-----------------|

G |---------------------11-13-14--------------|-----------------|

D |------------10-12-14-----------------------|-----------------|

A |-9h10-12-14--------------------------------|-----------------|

E |-------------------------------------------|------12---------|

 

   ___________________________________________

  | 2.

    Force

E |-8h7h5-------------------|-----------------|

B |-------8-7-5h4-----------|-----------------|

G |---------------5h4-------|-----------------|

D |-------------------7h5h4-|--------9--------|

A |-------------------------|-7------7--------|

E |-------------------------|-----------------|

 

 

 

E ||----------------|-----------------|-----------------|----------------||

B ||----------------|-----------------|-----------------|----------------||

G ||o---------------|-----------------|-----------------|---------------o||

D ||o---------------|-----------------|-----------------|---------------o||

A ||--5h7-------5h7-|-----5h7---5-----|-5h7-----------7-|-5--------------||

E ||------0-0-0-----|-0-0-------------|-----0-0-0-0-0---|---7-6-5-0-3h0--||

 

E |-----------------|-----------------|-----------------|-----------------|

B |-----------------|-----------------|-----------------|-----------------|

G |--5----7----9----|-----------------|---4----5----7---|-----------------|

D |--7----9----10---|-----------------|---5----7----9---|-----------------|

A |-----------------|-----------------|-----------------|-----------------|

E |-----------------|-----------------|-----------------|-----------------|

 

E |-----------------|-----------------|-----------------|----harm.--------|

B |-----------------|-----------------|-----------------|-----------------|

G |---2----4----5---|-----------------|-----------------|-----------------|

D |---4----5----7---|-----------------|--52--74--95--|-----------------|

A |-----------------|-----------------|--3----5----7----|-----------------|

E |-----------------|-----------------|-----------------|------7----------|

 

 

 

 

 

E ||--15h12-------15h12-------15h12-------14h12-------|

B ||--------12-12-------12-12-------12-12-------12-12-|

G ||o-------------------------------------------------|

D ||o-------------------------------------------------|

A ||--------------------------------------------------|

E ||--------------------------------------------------|

 

E |-15h12-------17h12-------15h12-------14h12---------|

B |-------12-12-------12-12-------12-12-------12-12---|

G |---------------------------------------------------|

D |---------------------------------------------------|

A |---------------------------------------------------|

E |---------------------------------------------------|

 

E |-15h12-------15h12-------15h12-------14h12---------|

B |-------13-13-------13-13-------13-13-------13-13---|

G |---------------------------------------------------|

D |---------------------------------------------------|

A |---------------------------------------------------|

E |---------------------------------------------------|

 

E |-15h12-------17h12-------15h12-------14h12---------|

B |-------13-13-------13-13-------13-13-------13-13---|

G |---------------------------------------------------|

D |---------------------------------------------------|

A |---------------------------------------------------|

E |---------------------------------------------------|

 

E |-17h14----14h17h14----14h17h14----14h15h14---------|

B |-------15----------15----------15----------15------|

G |---------------------------------------------------|

D |---------------------------------------------------|

A |---------------------------------------------------|

E |---------------------------------------------------|

 

E |-17h14----19h14----14h17h14-14--17h14--------------|

B |-------15-------15--------------------15-----------|

G |---------------------------------------------------|

D |---------------------------------------------------|

A |---------------------------------------------------|

E |---------------------------------------------------|

 

E |-19h15----15-19------7h3---3-7--|-19h15----15-19------7-3---3-7---||

B |-------17----------------5------|-------17----------------5-------||

G |--------------------------------|--------------------------------o||

D |--------------------------------|--------------------------------o||

A |--------------------------------|---------------------------------||

E |--------------------------------|---------------------------------||

 

 

E |-20h17----17-20-----8h5---5-8--|-20h17----17-20-----8h5---5-8-|

B |-------17---------------5------|-------17---------------5-----|

G |-------------------------------|------------------------------|

D |-------------------------------|------------------------------|

A |-------------------------------|------------------------------|

E |-------------------------------|------------------------------|

 

E |-17h14----14-17-----5h2---2-5--|-17h14----14-17-----5h2---2-5-|

B |-------15---------------3------|-------15---------------3-----|

G |-------------------------------|------------------------------|

D |-------------------------------|------------------------------|

A |-------------------------------|------------------------------|

E |-------------------------------|------------------------------|

 

E |-15h12----12-15-----3h0---0-3--|-15h12----12-15-----3h0---0-3-|

B |-------13---------------1------|-------13---------------1-----|

G |-------------------------------|------------------------------|

D |-------------------------------|------------------------------|

A |-------------------------------|------------------------------|

E |-------------------------------|------------------------------|

 

E |-5h2---2-5h2---5-8h5---5-8h5---|-11h8---8-11h8---11-14h11---11-14h11--14-|

B |-----4-------4-------7-------7-|-----10-------10---------13---------13---|

G |-------------------------------|-----------------------------------------|

D |-------------------------------|-----------------------------------------|

A |-------------------------------|-----------------------------------------|

E |-------------------------------|-----------------------------------------|

 

E |-17-14h17-20h19h17-------------------|-----------------------------------|

B |-------------------20h19h17-16-------|-----------------------------------|

G |-------------------------------17h16-|-----------------------------------|

D |-------------------------------------|-19h17h16--------------------------|

A |-------------------------------------|----------19-18---19^--------------|

E |-------------------------------------|-----------------------------------|

 

 

 

E |-----------------|---------------------|-------------------------------|

B |-----------------|----------8-10/11-10-|-8-11-10-8-7h8h7---7-----------|

G |-----------------|--------7------------|-----------------9-------------|

D |-----------------|------8--------------|-------------------------------|

A |-----------------|-9-10----------------|-------------------------------|

E |-----------------|---------------------|-------------------------------|

 

E |-----------------------|----------------------------|

B |----------7--5/7--5----|--------------5h7h8--5h7----|

G |--7--9--------------7--|--6----6--7h9-------------7-|

D |-----------------------|----------------------------|

A |-----------------------|----------------------------|

E |-----------------------|----------------------------|

 

E |-------6h7h9/10h9h76-------|-----------------------|

B |-5h7h8----------------8-7h10|h8------7--------------|

G |----------------------------|----------9h7h6--------|

D |----------------------------|-----------------9h7---|

A |----------------------------|-----------------------|

E |----------------------------|-----------------------|

 

 

 

E |-16~~~~-|-----------------17-16------16------|-------------------------|

B |-17^----|-19-17-16--16-19-------19-17--19-17-|-19-17-16---17-16-----16-|

G |--------|---------18-------------------------|---------18------18-17---|

D |--------|------------------------------------|-------------------------|

A |--------|------------------------------------|-------------------------|

E |--------|------------------------------------|-------------------------|

 

E |----------------------------------|------------------------------------|

B |-14h13--14--------14--14h13-------|--13--------------------------------|

G |------16--16h14h13--16-----16h14--|----16-14-13--14h13-----13----------|

D |----------------------------------|------------16-----16-14--16-14-13--|

A |----------------------------------|------------------------------------|

E |----------------------------------|------------------------------------|

 

E |-----------------------------|-------------------------------------|-----|

B |---------------------------13|14-16--14h16h17h14-16h17h19-16h17h19-|-19^-|

G |-------------------13h14h16--|-------------------------------------|-----|

D |-16-14h13--13-14h16----------|-------------------------------------|-----|

A |---------16------------------|-------------------------------------|-----|

E |-----------------------------|-------------------------------------|-----|

 

 

 

                                                      w/ bar

E |-------------------|------------------|----------|---------------------|

B |-7h9h7-------------|------------------|----------|---------------------|

G |-------9-8-6-------|------------------|----------|---------------------|

D |-------------9-8-6-|-8h9h8------------|----------|-v-------------------|

A |-------------------|-------11-9-8-7-8-|-h9-8-8h6-|-5---v---------------|

E |-------------------|------------------|----------|-----7---------------|

 

 

 

      tr ~~~~

E |---19h20h19--------|-20h17-19-17----17-------17----------|

B |-------------------|-------------20----19h20----20h19-17-|

G |-------------------|-------------------------------------|

D |-------------------|-------------------------------------|

A |-------------------|-------------------------------------|

E |-------------------|-------------------------------------|

 

E |-17----17----------------------------|----------------------------|

B |----20----20h19-17-20h19-20h19h17-16-|h17h16----------------------|

G |-------------------------------------|-------17h16----------16~~--|

D |-------------------------------------|-------------19-17-16-------|

A |-------------------------------------|----------------------------|

E |-------------------------------------|----------------------------|

 

E |-19--19~~-|-7-8h5-7---|-5-----------------|-----------------------|

B |----------|---------8-|---8h7h5-8h7h5-----|-----4h5h4-------------|

G |----------|-----------|---------------8-4-|h5h7-------7h5h4-------|

D |----------|-----------|-------------------|-----------------7h5h4-|

A |----------|-----------|-------------------|-----------------------|

E |----------|-----------|-------------------|-----------------------|

 

 

 

 

     Burned by the glory of a sacred fire

     The Rising Force starts to shine

     A burning inferno it soars ever higher

     Heaving the demons behind

 

 

      The lightning   strikes           *****ing the night

E ||-----------------|-----------------|-----------------|----------------|

B ||-----------------|-----------------|-----------------|----------------|

G ||o----------------|-----------------|-----------------|----------------|

D ||o----------------|-----------------|-------------5---|----------------|

A ||--------------5--|--5-5-5-5-5--5---|-------------3---|--3-3-3-3-3-3---|

E ||-5--5-5-5-5-5----|-------------3---|--3-3-3-3-3------|----------------|

 

  1.It feels like     never         before

  2.I'm not the       same any more                              no

E |-----------------|-----------------|-----------------|-----------------|

B |-----------------|-----------------|-----------------|-----------------|

G |-----------------|-----------------|-----------------|--4-----5--------|

D |-----------------|-----------------|---5-----7-------|--5-----7--------|

A |--5--5-5-5-5-5-6-|--6-6-6-6-6-6----|---7-----9-------|-----------------|

E |-----------------|-----------------|-----------------|-----------------|

 

    Thunder and       spark    In the  heart of the dark

E |-----------------|-----------------|-----------------|-----------------|

B |-----------------|-----------------|-----------------|-----------------|

G |--------------7--|--------7--------|---------------5-|-(5)-------------|

D |-7------------7--|--------7--------|--5------------5-|-(5)-------------|

A |-7------------5--|--5-5-5-5-5--5---|--5------------3-|-(3)-------------|

E |-5--5-5-5-5-5----|-----------------|--3--3-3-3-3-3---|-----------------|

 

 

         I feel a     Rising         

E |-----------------|-----------------|

B |-----------------|-----------------|

G |--7--------------|-----------------|

D |--7--------------|-----------------|

A |--5--5-5-5-5-5-6-|---6-----6-------|

E |-----------------|-----------------|

 

   __________________________________________________  ___________

  | 1.

    Force

E |------------------------------------11-12--|-----------------||

B |------------------------------12h13--------|-----------------||

G |---------------------11-13-14--------------|----------------o||

D |------------10-12-14-----------------------|----------------o||

A |-9h10-12-14--------------------------------|-----------------||

E |-------------------------------------------|------12---------||

 

   _____________________________________

  | 2.

    Force

E |-8h7h5---------------------|---------|

B |-------8h7h5---------------|---------|

G |-------------8h7h5h4-------|---------|

D |---------------------7h5h4-|---------|

A |---------------------------|-7-9-7---|

E |---------------------------|---------|

 

 

 

 

E |-----------------|-----------------|-----------------|-----------------|

B |-----------------|-----------------|-----------------|-----------------|

G |-----------------|-----------------|-----------------|-----------------|

D |-----------------|-----------------|-7---------------|-----------------|

A |-5h7---------5h7-|-----5h7---------|-5/7---------5/7-|-----5/7---------|

E |-0---0-0-0-0-----|-0-0-----0-0-0-0-|-----0-0-0-0-----|-0-0-----0-0-0-0-|

 

E |-----------------|-----------------|-----------------|-----------------|

B |-----------------|-----------------|-----------------|-----------------|

G |-----------------|-----------------|-7/9-------------|-----------------|

D |-7/9---------7/9-|-----7/9---------|-7/9---------7/9-|-----7/9---------|

A |-5/7---------5/7-|-----5/7---------|-------------5/7-|-----5/7---------|

E |-0---0-0-0-0-----|-0-0-----0-0-0-0-|-----0-0-0-0-----|-0-0-----0-0-0-0-|

 

E |----------------------------------10-12-14-|

B |-------------------------10-12-13----------|

G |-9~~-------------9-11-12-------------------|

D |---------9-10-12---------------------------|

A |-------------------------------------------|

E |-------------------------------------------|

 

E |h12-10----------------8-10-12-10h8---------|

B |------13-12-10-8-10-12------------12-10-8--|

G |-------------------------------------------|

D |-------------------------------------------|

A |-------------------------------------------|

E |-------------------------------------------|

                                                                        harm.

E |-------7-8-10-8h7------------5-7-|-8-7-5--------------------|------------|

B |-7-8-10----------10-8-7-5-7-8----|------8-7-5-5h7h5-4-------|------------|

G |---------------------------------|-----------8-------7-5-4--|------------|

D |---------------------------------|------------------------7-|------------|

A |---------------------------------|--------------------------|-5h4--------|

E |---------------------------------|--------------------------|----7-6---7-|

 

E |-6---------------|-7---------------|-7---------------|-7----------------||

B |-7---------------|-7---------------|-8---------------|-8----------------||

G |-6---------------|-8---------------|-9---------------|-9----------------||

D |-----------------|-9---------------|-9---------------|-9----------------||

A |-----------------|-9---------------|-7---------------|-7----------------||

E |-6---------------|-7---------------|-----------------|------------------||

Linkback: https://www.buyuknet.com/yngwie-malmsteen-rising-force-tab-t29346.0.html

Etiket:
 

Bu bilgi size yardimci oldu mu?

EvetHayır
Yngwie Malmsteen - Rising Force (Tab)
Yngwie Malmsteen - Rising Force (Tab)
(Ortalama: 5 üzerinden 2.5 - 2 Oy)
2
Yngwie Malmsteen - Rising Force (Tab)

Yngwie Malmsteen - Rising Force (Tab) »E ||---6------------|-----------------|-8---------------|----------------|| B