Yngwie Malmsteen - Save Our Love (Tab)

Buyuknet15.10.2010 - 02:02 |
guitar synth

|-----------------5-7-8-------7-8-----8-10---|-8-7----------7-8~-----------|

|---------------5----------------------------|-----10-8-10-----------------|

|-------------5------------------------------|-----------------------------|

|-----------7--------------------------------|-----------------------------|

|--------------------------------------------|-----------------------------|

|--------------------------------------------|-----------------------------|

|                                            |                             |

| acoustic                                   |                             |

|--------------------------------------------|-----------------------------|

|-----------0--1--------------0--1p0---------|-------0-1---------0h1p0-----|

|--------2-----------------2----------2------|-----2-----------2-------2---|

|-----2-----------------2----------------2---|---3-----------3-----------3-|

|--0-----------------0-----------------------|-----------------------------|

|--------------------------------------------|-1-----------1---------------|

 

 

|12-13-10-13----13----13------------8-12p10p8---------------------17-------|

|------------13----12----10-9-10-12-----------12-10-9-10-------------------|

|--------------------------------------------------------9----14-----------|

|--------------------------------------------------------------------------|

|-------------------------------------------------------------12--14-------|

|--------------------------------------------------------------------------|

|                                                                          |

|                                                                          |

|--------------------------------------------------------------------------|

|-----------0--1-----------------------------------------0--1p0------------|

|--------2--------------------------------------------2----------2---------|

|-----2--------------------------------------------2----------------2------|

|--0--------------------------------------------0--------------------------|

|--------------------------------------------------------------------------|

 

 

|-17~----15--13----12--10----8----|-12-10p8--------------------------------|

|---------------------------------|---------10---------10-8----------------|

|--------16--14----12--10----9----|-12----------------------9--------------|

|---------------------------------|---------------10----------10-----------|

|---------------------------------|----------------------------------------|

|---------------------------------|----------------------------------------|

|                                 |Verse                                   |

|                                 |Once ...|

|---------------------------------|----------------------------------------|

|-------0-1---------0h1p0---------|-------0---1----------0--1p0------------|

|-----2-----------2--------2------|-----2--------------2--------2----------|

|---3-----------3-------------3---|---2--------------2------------2--------|

|---------------------------------|-0--------------0-----------------------|

|-1-----------1-------------------|----------------------------------------|

 

  worlds ...

 

|------------------------------|-------------------------------------------|

|-------0-1---------0-1-0------|-------------------3---5h6-5--3--3---------|

|-----2-----------2-------2----|------1--2--4---5--------------------------|

|---3-----------3-----------3--|---2--2--0--0------------------------------|

|------------------------------|-------------------------------------------|

|-1-----------1----------------|-0-----------------4-----------------------|

 

 other heart         1.   My ..

                     2.   You ..

 

|---------------0------||------------------------------|--------------------

|-3h5-5------0---------||-------0--1---------0-1-0-----|------0-1-------0-1-

|------------------4~--||-----2------------2-------2---|----2---------2-----

|----------------------||---2------------2-----------2-|--3---------3-------

|-0--------------------||-0------------0---------------|--------------------

|------------0--2--4~--||------------------------------|1---------1---------

 

          Can't ..

          Eternal ..

 

---------|----------------------------|--------------0---------------------|

--0------|-----------------3--5h6-5-3-|-h5--5~----0------------------------|

----2----|-----1--2--4--5-------------|-----------------4~-----------------|

------3--|---2----0-------------------|------------------------------------|

---------|----------------------------|--0---------------------------------|

---------|-0---------------4----------|-----------0--2--4~-----------------|

 

 

All ..

My ..

 

|-------5----5-----------5----------|------------5-------------------------|

|-----6--------6-------6-------6----|-------6------6---------6-------------|

|---5------------5---5-------5---5--|-----7----------7-----7---------------|

|-----------------------------------|---7----------------7------------5----|

|-8--------8-------8-------7--------|-5--------5-------5--------5--7-------|

|-----------------------------------|--------------------------------------|

 

and ..

and ..

 

|---------5------5------5-----------|----------------0---------------------|

|------6------------------6-----6---|------6---------0---------------------|

|----5---------5--------------------|--------------------------------------|

|---------------------7-------7-----|----7---------------------------------|

|-8----------7------5---------------|----------------------------------10-|

|---------------------------8-----8-|--7-------5-----4---------------------|

 

 

There's ..

                                                        for ..

Chorus

|-------------------|----------------------|-------------------------------|

|-------------------|----------------------|-------------------------------|

|-------------------|----------------------|-------------------------------|

|--5----------------|-----------2----------|--3-------------0--------------|

|--3------2---------|-----------0----------|--3-------------0--------------|

|----------------5--|--4-------------3-----|--1-------------2--------------|

 

 

We've ..

                                                                reason to

|-----------------------|----------------------|---------------------------|

|-----------------------|----------------------|---------------------------|

|-----------------------|----------------------|---------------------------|

|--0----------5--3--2---|--5-------------------|-----------2---------------|

|---------------------5-|--3-------2-----------|-----------0---------------|

|--3--------------------|----------------5-----|--4---------------3--------|

 

 

ending 1

 

pretend ...

 

|----------------------|------------------|--------------------------------|

|----------------------|------------------|--------0-1--------2-0h1p0------|

|----------------------|------------------|------2----------2---------2----|

|---------0------------|--0----------2----|2---2----------2-------------2--|

|--3------0------------|-------------2----|--0----------0------------------|

|--1-------------------|--3----------4----|--------------------------------|

 

 

|------------------------------|----------------------------|---------------

|--------0-1--------0-1p0------|-------0-1--------0-1-0-----|-------0-1-----

|------2----------2-------2----|-----2----------2-------2---|-----2---------

|----3----------3-----------3--|---2----------2-----------2-|---3-----------

|------------------------------|-0----------0---------------|---------------

|--1----------1----------------|----------------------------|-1-------------

 

 

-------------------||

--------0h1p0------||

------2-------2----||

----3-----------3--||

-------------------||

--1----------------||

 

 

ending 2 (same lyrics as ending 1)

                                                  Guitar solo

|----------------|-------------------------------|-------------------------|

|----------------|-------------------------------|-------------------------|

|----------------|-------------------------------|----7-9-10-12-10-9-------|

|----------0-----|---0--------------0----------5/|10~----------------12-10-|

|-3--------0-----|-------------------------------|-------------------------|

|-1--------------|---3--------------3------------|-------------------------|

 

 

|-----------------------------------------|--------------------------------|

|-----------------------------------------|--------------------------------|

|----------------10-9tr10-9~--7~----------|--------------------------------|

|-12~----9-10-12------------------10--9~--|-7~--7-9-10-/12---12bf----------|

|-----------------------------------------|--------------------------------|

|-----------------------------------------|--------------------------------|

 

 

|---------------------------------------12h13p12-10-------------------------

|----------------------------9-10h12h13-------------13p12p10-9--------------

|-----------------------9h10-----------------------------------10p9---------

|-rb12p10-12~---9h10h12---------------------------------------------12p10p9-

|---------------------------------------------------------------------------

|---------------------------------------------------------------------------

 

                1/2                      1/2

---------|-----------------|-------10-10h12b-rb12-10----------17p12---------

---------|------12b--rb12--|-10h12-------------------13p12p10-------13----13

---------|-14--------------|-------------------------------------------14---

---------|-----------------|------------------------------------------------

--12-11--|-12--------------|------------------------------------------------

---------|-----------------|------------------------------------------------

 

 

-12/19--20bf~--|-20bf--rb20--19-20p19-17----19----------17----------15------

---------------|-------------------------17----17----------15---------------

---------------|----------------------------------1917-------1716---1614-

---------------|------------------------------------------------------------

---------------|------------------------------------------------------------

---------------|------------------------------------------------------------

 

                               1/2

-13----------12----------10--------|------------------------5-7/8--7--8-----

----12----------10-----------------|----------------------5-----------------

-------1412-------1210----109b--|-rb9--5~--------------------------------

-----------------------------------|-----------10p7-------------------------

-----------------------------------|----------------8p75-------------------

-----------------------------------|----------------------------------------

 

 

-10-8h10p8p7-8p7-------------------------------|----------10-13p10-13/17-13-

-----------------10p8p65h6p5------------------|-------10-------------------

-------------------------------7p54-----------|----10----------------------

-------------------------------------7p5-------|-12-------------------------

-----------------------------------------8p7-5-|----------------------------

-----------------------------------------------|----------------------------

 

 

--------------13---------------------/17--16-18-15-18----18----18-----------

-15--------------15-----------------------------------18----17----15-14tr15-

----14--------------14------------------------------------------------------

-------15p14-----------1514---12~------------------------------------------

----------------------------------------------------------------------------

----------------------------------------------------------------------------

 

                                    1/2        1/2

------17p13--|----------13-17/20bf--21b--rb21--21b--rb21--18-21-------18----

-14~---------|-15----15-----------------------------------------20-20----17-

-------------|----14--------------------------------------------------------

-------------|--------------------------------------------------------------

-------------|--------------------------------------------------------------

-------------|--------------------------------------------------------------

 

 

-15----------------1217-|-18--18bf--rb18--17h18p17-15-17-17~--17/19-------

----14-14h17----14-------|--------------------------------------------12----

-------------15----------|-----------------------------------------------14-

-------------------------|--------------------------------------------------

-------------------------|--------------------------------------------------

-------------------------|--------------------------------------------------

 

 

-----12-12h17p12------------12-12h17p12------------12-12h17p12----/22bf----|

--12-------------12------12-------------12------12-------------12----------|

----------------------14---------------------14----------------------------|

---------------------------------------------------------------------------|

---------------------------------------------------------------------------|

---------------------------------------------------------------------------|

 

chorus

 

end

Linkback: https://www.buyuknet.com/yngwie-malmsteen-save-our-love-tab-t29345.0.html

Etiket:
 

Bu bilgi size yardimci oldu mu?

EvetHayır
Yngwie Malmsteen - Save Our Love (Tab)
Yngwie Malmsteen - Save Our Love (Tab)
(Ortalama: 5 üzerinden 2.5 - 2 Oy)
2
Yngwie Malmsteen - Save Our Love (Tab)

Yngwie Malmsteen - Save Our Love (Tab) »guitar synth |-----------------5-7-8-------7-8-----8-10---|-8-7----------7-8~-----------|