Yngwie Malmsteen - Soldier Without Faith (Tab)

Buyuknet15.10.2010 - 02:02 |
tune down 1/2 step

|-----------------------|--------------------------------------------------|

|-----------------------|--------------------------------------------------|

|-----------------------|----9--x--x--10--x--x--9--x--x--7--x--x--45------|

|-----------------------|----7--x--x---6--x--x--7--x--x--6--x--x--67------|

|-----------3--2--0-----|-0------------------------------------------------|

|--0--1--3-----------4--|--------------------------------------------------|



|-------------------------------------------------|

|-------------------------------------------------|

|-x--x--9--x--x--10--x--x--9--x--7--x--5--x-------|

|-x--x--7--x--x---6--x--x--7--x--6--x--7--x--6~---|

|-------------------------------------------------|

|-------------------------------------------------|

 

|--------------------------------------------------|-----------------------|

|--------------------------------------------------|-----------------------|

|----9--x--x--10--x--x--9--x--x--7--x--x--45------|-----------------------|

|----7--x--x---6--x--x--7--x--x--6--x--x--67------|-----------------------|

|-0------------------------------------------------|-----------3--2--0-----|

|--------------------------------------------------|--0--1--3-----------4--|

 
 

|--------------------------------------------------|

|--------------------------------------------------|

|----9--x--x--10--x--x--9--x--x--7--x--x--45------|

|----7--x--x---6--x--x--7--x--x--6--x--x--67------|

|-0------------------------------------------------|

|--------------------------------------------------|

 

|-------------------------------------------------|

|-------------------------------------------------|

|-x--x--9--x--x--10--x--x--9--x--7--x--5--x-------|

|-x--x--7--x--x---6--x--x--7--x--6--x--7--x--6~---|

|-------------------------------------------------|

|-------------------------------------------------|

 

|--------------------------------------------------|

|--------------------------------------------------|

|----9--x--x--10--x--x--9--x--x--7--x--x--45------|

|----7--x--x---6--x--x--7--x--x--6--x--x--67------|

|-0------------------------------------------------|

|--------------------------------------------------|

Continue rhythm through solo

 

 

|-----------------------12h13p12p10-----------------------------------------

|-----------------10-12-------------13p12p10---------10h12p10p8-------------

|---------9-10-12----------------------------12p10p9------------10h12p10p9--

|-9-10-12-------------------------------------------------------------------

|---------------------------------------------------------------------------

|---------------------------------------------------------------------------

 

 

-----------------|----------------------------------------------12h13p12p10-

-----------------|---------------------------8-7-9-8-10-9-12p10-------------

-10p9------------|------5---5-4-7-5-9-7-10p9--------------------------------

------12p10-9~---|-x/7----7-------------------------------------------------

-----------------|----------------------------------------------------------

-----------------|----------------------------------------------------------

 

 

-------------------|---------------------------------------------12h13p12p10

-13p12p10----------|-10h12p10p8---------------13p12p109--------------------

----------12p109--|------------10p9p7-------------------12p10p9------------

-------------------|-------------------10p9p7-------------------------------

-------------------|--------------------------------------------------------

-------------------|--------------------------------------------------------

 

 

----------15bf~--12h13p12|p10----------19p16----19--1916p13----1613p10----

-13p12p10----------------|----13p12p10-------18--------------15----------12-

-------------------------|--------------------------------------------------

-------------------------|--------------------------------------------------

-------------------------|--------------------------------------------------

-------------------------|--------------------------------------------------

 

                                              1 1/2  1/2   1/2

-13/16p13----------13-16p13----19p16-------|-16-21b-rb21--b21~-------------|

----------15p12-15----------15-------18----|-------------------------------|

----------------------------------------19-|-------------------------------|

-------------------------------------------|-------------------------------|

-------------------------------------------|-------------------------------|

-------------------------------------------|-------------------------------|

 

 

|-20-19-17-16-17-19-20-19-17-16-17-19-20-19-17-16-19-17-16----17-16---------

|----------------------------------------------------------18-------18p17h18

|---------------------------------------------------------------------------

|---------------------------------------------------------------------------

|---------------------------------------------------------------------------

|---------------------------------------------------------------------------

 

 

-16----------|--------------------------------------------------------------

----17h18p15-|-18-15-17h18p17-15-21-15-17h18p17-15-18p17p1513-17p15p1312--

-------------|--------------------------------------------------------------

-------------|--------------------------------------------------------------

-------------|--------------------------------------------------------------

-------------|--------------------------------------------------------------

 

 

------------------------|-20bf--20bf--19-17-16------------------------------

-15p13p12h13p12---------|----------------------18-17-15---------------------

----------------14-13~--|-------------------------------17-16-14-13---------

------------------------|-------------------------------------------15-14-12

------------------------|---------------------------------------------------

------------------------|---------------------------------------------------

 

 

----|------------------------------|

----|------------------------------|

----|------------------------------|

----|------------------------------|

-15-|-14-12-11-14-12-11----11------|

----|-------------------13----12~-|

 

 

Verse

1.  Now ..

2.  Fighting ..

3.  Lost ...

 

 

|----------------------------------------------|----------------------------

|----------------------------------------------|----------------------------

|----------------------------------------------|----------------------------

|----------------------------------------------|----------------------------

|------5-----4-----2-----------2-----------4~--|------5-----4-----2---------

|-2-------2-----2-----x--5--2-----x--5--4------|-0h2-----2-----2-----4--5---

 

 

-----------------------|

-----------------------|

-----------------------|

-----------------------|

--2-----2--------------|

-----4-----5--4--2--1--|

 

 

 

dead ..

they ..

just ..His

 

 

|----------------------------------------------|----------------------------

|----------------------------------------------|----------------------------

|----------------------------------------------|----------------------------

|----------------------------------------------|----------------------------

|-------5-----4-----2-----------------------4~-|------5-----4-----2---------

|-2--2-----2-----2-----2--5--2--4--2--5--4-----|-0h2-----2-----2-----2--5---

 

 

-----------------------|

-----------------------|

-----------------------|

-----------------------|

----------4--2---------|

-2--4--2--------5--4---|

 

 

Marched ..no

Slaying ...

mother ...

 

|----------------------------------------------|----------------------------

|----------------------------------------------|----------------------------

|----------------------------------------------|----------------------------

|----------------------------------------------|----------------------------

|-------5-----4-----2-----------2-----------4~-|------5-----4-----2---------

|-2~-------2-----2-----2--5--2-----2--5--4-----|-0h2-----2-----2-----4--5---

 

 

--------------------------|

--------------------------|

--------------------------|

--------------------------|

--2-----2-----------------|

-----4-----5--4--2--1-----|

 

 

 

glory ..

keep ..

twisted ..

 

 

|-------------------------------------------------|-------------------------|

|-------------------------------------------------|-------------------------|

|-------------------------------------------------|-------------------------|

|-------------------------------------------------|-------------------------|

|-------5-----4-----2-----------------------5-----|-4-----2-----------------|

|-2--2-----2-----2-----2--5--2--4--2--5--2-----2--|----2-----2--5--2--4--2-2|

 

 

Gotta ..

|---------------------------|-------------------------|--------------------|

|--2~-----------------------|---3~--------------------|---3---------3------|

|--2~-----------------------|---2~--------------------|---4---------4------|

|--4~-----------------------|---4~--------------------|---6---------4------|

|---------------------------|-------------------------|--------------------|

|---------------------------|-------------------------|--------------------|

 

 

Gotta ...

|---------------------------|-------------------------|--------------------|

|--2~-----------------------|---3~--------------------|---3----------5bf---|

|--2~-----------------------|---2~--------------------|---4--------x-------|

|--4~-----------------------|---4~--------------------|---6------x---------|

|---------------------------|-------------------------|--------------------|

|---------------------------|-------------------------|--------------------|

 

 

|---------------------------------------------|-----------------------------

|---------------------------------------------|-----------------------------

|---------------------------------------------|-----------------------6-6---

|---------------------------------------------|-----------------------6-6---

|------5-----4-----2-----------2-----------4~-|------5-----4-----2----4-4---

|-0h2-----2-----2-----2--5--2-----2--5--4-----|-0h2-----2-----2----2--------

 

 

----------|----------------------------------------|------------------------

----------|----------------------------------------|------------------------

-6--6-----|-------------------------6--6-----6--6--|------------------------

-6--6-----|----------4--3-----------6--6-----6--6--|-4--3h4p3--------3------

-4--4-----|-2--4--5--------5--4--2--4--4-----4--4--|-----------5--4-----5--4

----------|----------------------------------------|------------------------

 

 

-----------------------------|---------------------------------------------|

-----------------------------|---------------------------------------------|

-----------------------------|---------------------------------------------|

-----------------------------|--4----4--------------4---4------------------|

--2--5--4--2-----4--2--------|--4----4--------------4---4------------------|

--------------5--------5--4--|--2----2--------------2---2------------------|

 

 

Solo

                                       1/2               1/2

|-10bf-rb-9p7--------7bf-rb-p5p4--------------------------------------------|

|-------------10p9p7-------------7p6p3-9b---rb-p6---------------------------|

|-------------------------------------------------7p6----10b--rb-p6---------|

|-----------------------------------------------------9-------------9p7p6---|

|-------------------------------------------------------------------------8-|

|---------------------------------------------------------------------------|

 

 

|-----------------------9h13p12h13p12p109h10p9----|-------9----------------

|--------------------10-------------------------12-|-10-12---12-10-9----10p-

|-----------------11-------------------------------|-----------------10-----

|--------------11----------------------------------|------------------------

|-9~----11-12-------------------------------------|------------------------

|--------------------------------------------------|------------------------

 

 

----------------------|--------------9-12-13p12p109h10p9h10----|-10p9------

-9--------------------|------9-10-12-------------------------12-|------12---

---11bf---12-11-12-11-|-11~-------------------------------------|-----------

----------------------|-----------------------------------------|-----------

----------------------|-----------------------------------------|-----------

----------------------|-----------------------------------------|-----------

 

 

-------9----9h10p97--------------------------9h10p9p7-----|----------------

-10-12---12----------10p9p7h9-6---------6h7h9----------10p9|p7--------------

--------------------------------7p6-7h9--------------------|---10p9p76-----

-----------------------------------------------------------|----------------

-----------------------------------------------------------|----------------

-----------------------------------------------------------|----------------

 

 

--------------------------9-14/17p14--------17/21~-------------------------|

-10p9p7----------------10------------14------------------------------------|

--------10p9p7------11------------------14---------------------------------|

---------------9/11--------------------------------------------------------|

---------------------------------------------------------------------------|

---------------------------------------------------------------------------|

 

                       1/2  1/2                  1/2

|-19h21-17-21-16-21-------------|------16-17-19----------------------------|

|-------------------19-21b--21b-|--rb------------21b-----------------------|

|-------------------------------|------------------------------------------|

|-------------------------------|------------------------------------------|

|-------------------------------|------------------------------------------|

|-------------------------------|------------------------------------------|

 

              1/2

|----------14-16b--p14-16-12-14-10h12p10-----------------------------------|

|-------14-------------------------------12-9h10h12p10---------------------|

|----14-------------------------------------------------10--11bf~----------|

|-16-----------------------------------------------------------------------|

|--------------------------------------------------------------------------|

|--------------------------------------------------------------------------|

 

 

|-------------------------------------------|-------------------------------

|-9-10-----9--------------------------------|-----------------------------10

|------11~---10-11----10--------------------|--------------------10-11-13---

|------------------12----11h12p11p9-11p9----|------------9-11-12------------

|----------------------------------------12-|-11-9-11-12--------------------

|-------------------------------------------|-------------------------------

 

 

-------12-10-------109-------97---------7--------|------------------------

-12-14-------14-12------12-10-----10p9h10---10p9p7-|-10-9-75-9-7-5---7-5---

---------------------------------------------------|----------------7-----7-

---------------------------------------------------|------------------------

---------------------------------------------------|------------------------

---------------------------------------------------|------------------------

 

 

-----------------------|----------------------------------------------------

---5-------------------|--------------------------------------------10-11---

-6---7-6-7-6-4bf--t12~-|-4b-t12--b4--t12-----7-t11p76b-4p2~---/11---------

-----------------------|----------------------------------------------------

-----------------------|----------------------------------------------------

-----------------------|----------------------------------------------------

 

                              1 1/2

-109-|-13p10p98h10p8-9--------------------|-------------|-9-10-12-12h13p12

------|------------------12bf--rb12--12bf~--|--12bf~------|-----------------

------|-------------------------------------|-------------|-----------------

------|-------------------------------------|-------------|-----------------

------|-------------------------------------|-------------|-----------------

------|-------------------------------------|-------------|-----------------

 

 

-p10-13-12-10-9-10-12h13p12p10-9-10-12-13p12p10-12h13p12p10-12h13p12p10|12h-

-----------------------------------------------------------------------|----

-----------------------------------------------------------------------|----

-----------------------------------------------------------------------|----

-----------------------------------------------------------------------|----

-----------------------------------------------------------------------|----

 

 

-13p12p10-12h13p12p10-9-10-12-13-10-12-1416-16~-1619-19-|19/21-21-21~-----

----------------------------------------------------------|-----------------

----------------------------------------------------------|-----------------

----------------------------------------------------------|-----------------

----------------------------------------------------------|-----------------

----------------------------------------------------------|-----------------

 

 

-21-17h21-17----0-17p13-------|-21p17-------17-14-16-17-16-14-21-14-16-17-16

-------------19---------14----|-------18------------------------------------

---------------------------14-|----------18---------------------------------

------------------------------|---------------------------------------------

------------------------------|---------------------------------------------

------------------------------|---------------------------------------------

 

                         1 1/2    1 1/2  1/2  1/2

-14-19-16-17-19-17-16-19/21b----|--21b--rb21--21b---19-21-17-21-16-21------|

--------------------------------|---------------------------------------19-|

--------------------------------|------------------------------------------|

--------------------------------|------------------------------------------|

--------------------------------|------------------------------------------|

--------------------------------|------------------------------------------|

 

 

|-21------------------------------------------------------------------------

|-----19bf~--18h19p18p17-19----19-18-17-19-17-16----16-17-18h19p18-17-16-17-

|---------------------------18-------------------19-------------------------

|---------------------------------------------------------------------------

|---------------------------------------------------------------------------

|---------------------------------------------------------------------------

 

 

-------|-17-16-21p17-------17px----------------9--12h14p12p10---------------

-18-19-|-------------19---------x---------9h10----------------14p12p10------

-------|----------------x---------1413~-------------------------------14p12

-------|--------------------------------------------------------------------

-------|--------------------------------------------------------------------

-------|--------------------------------------------------------------------

 

 

------------------|-12p109-h10p9p7----------------------------------------|

-------------9h10-|-----------------10p9p7---9-75-------9p6---------------|

-p10/910h12------|------------------------9-------7p6h7-----7p6~----------|

------------------|--------------------------------------------------------|

------------------|--------------------------------------------------------|

------------------|--------------------------------------------------------|

 

             scoop w/bar----               1/2

|-----------12/16--12~--|-16----12--16/19--16b-------12-------12h14h16-----|

|-------10--------------|--------------------------------------------------|

|-x/11------------------|--------------------------------------------------|

|-----------------------|--------------------------------------------------|

|-----------------------|--------------------------------------------------|

|-----------------------|--------------------------------------------------|

 

 

|-t17p16-t17p16p14p12-t17p16-t17p16p14p12-x-t17p12-t17p16p14p12-t17xp14p12-

|---------------------------------------------------------------------------

|---------------------------------------------------------------------------

|---------------------------------------------------------------------------

|---------------------------------------------------------------------------

|---------------------------------------------------------------------------

 

 

-h16/19bf----17p14-------|---------------14p12p109----12p10p9-9h10p97-----

-------------------------|------10h12h14------------10------------------10p9

-------------------14~---|--p13---------------------------------------------

-------------------------|--------------------------------------------------

-------------------------|--------------------------------------------------

-------------------------|--------------------------------------------------

 

 

----------------|----------------------------------------------------------|

-p7h9p7---------|-7p6------------------------------------------------------|

--------9p76h7-|-----9-7p6---9p6------6bf*--rb4~--------------------------|

----------------|-----------x-----9-7--------------------------------------|

----------------|----------------------------------------------------------|

----------------|----------------------------------------------------------|

 

 

|----------------------------------------------------------------|----------

|---------7-9-10p9-10p9p75/7h9-10-x-10-10p9p75-12p9-12p9p7p5h7-|-t12p9h10-

|-------6--------------------------------------------------------|----------

|-4h6h7----------------------------------------------------------|----------

|----------------------------------------------------------------|----------

|----------------------------------------------------------------|----------

 

 

|---------------------------------------------------------------------------

|-t12p10p9p75-t12p9h10-t12p10p9p75-t12p10p9-t12p10p9p75-t12p10p9-t12p10p9

|---------------------------------------------------------------------------

|---------------------------------------------------------------------------

|---------------------------------------------------------------------------

|---------------------------------------------------------------------------

 

 

---------------------------------------|----------9---------------9-12-9-10-

-p75-t12p10p9-t12p10p9p75-t12p10p9p7-|-t12p10x---10----9-10-12-----------

---------------------------------------|---------------11-------------------

---------------------------------------|------------------------------------

---------------------------------------|------------------------------------

---------------------------------------|------------------------------------

 

 

----9-------------------|--------------------------------------------------|

-12---12-10-9-10-9------|-12bf----12bf-rb-p10--12/15~----------------------|

-------------------11~--|--------------------------------------------------|

------------------------|--------------------------------------------------|

------------------------|--------------------------------------------------|

------------------------|--------------------------------------------------|

 

 

|-11-8----------8-14-11-------11-14/16h17p16p1412--------------------------

|------10----10---------13-------------------------15-14p1210--------------

|---------11---------------14----------------------------------13p11p10-----

|---------------------------------------------------------------------------

|---------------------------------------------------------------------------

|---------------------------------------------------------------------------

 

 

-----------------|---------------------------------------------------------|

-----------------|---------------------------------------------------------|

-----------------|---------------------------6----6---------6-----6--------|

-12p11p9---------|----------4--4p3-----------6----6---------6-----6--------|

---------12p11p9-|-2--4--5----------5--4--2--4----4---------4-----4--------|

-----------------|---------------------------------------------------------|

 

 

|------------------------------------------------|-------------------------|

|------------------------------------------------|-------------------------|

|------------------------------------------------|-------------------------|

|-3h4p3-------3----------------------------------|----4----4-------4---4---|

|-------5--4-----5--4--2--5--4--2-----4--2-------|----4----4-------4---4---|

|----------------------------------5--------5--4-|----2----2-------2---2---|

 

 

|----------|-----------|

|---5~-----|-----------|

|---4~-----|-----/x---|

|---6~-----|-----/x---|

|----------|-----/x---|

|----------|-----------|

 

 

||-------------------------------------------------|

||-------------------------------------------------|

||---9--x--x--10--x--x--9--x--x--7--x--x--45------|

||---7--x--x---6--x--x--7--x--x--6--x--x--67------|

||0------------------------------------------------|

||-------------------------------------------------|

 

 

|-------------------------------------------------||

|-------------------------------------------------||

|-x--x--9--x--x--10--x--x--9--x--7--x--5--x-------||

|-x--x--7--x--x---6--x--x--7--x--6--x--7--x--6~---||

|-------------------------------------------------||

|-------------------------------------------------||

 

 

|--------------------------------|-------------------------------------------------|

|--------------------------------|-------------------------------------------------|

|--5-----------------------------|---9--x--x--10--x--x--9--x--x--7--x--x--45------|

|--7-----------------------------|---7--x--x---6--x--x--7--x--x--6--x--x--67------|

|--0-----------------3--2--0-----|0------------------------------------------------|

|-----------0--1--3-----------4--|-------------------------------------------------|

 

 

|-------------------------------------------------|-------------------------

|-------------------------------------------------|-------------------------

|-x--x--9--x--x--10--x--x--9--x--7--x--5--x-------|-------------------------

|-x--x--7--x--x---6--x--x--7--x--6--x--7--x--6~---|-------------------------

|-------------------------------------------------|-------------------------

|-------------------------------------------------|-------------------------

 

 

|-------------------------------------------------|-------------------------

|-------------------------------------------------|-------------------------

|---9--x--x--10--x--x--9--x--x--7--x--x--45------|-------------------------

|---7--x--x---6--x--x--7--x--x--6--x--x--67------|-------------------------

|0------------------------------------------------|-------------------------

|-------------------------------------------------|-------------------------

 

 

|-------------------------------------------------|-------------------------|

|-------------------------------------------------|-------------------------|

|-x--x--9--x--x--10--x--x--9--x--7--x--5--x-------|-------------------------|

|-x--x--7--x--x---6--x--x--7--x--6--x--7--x--6~---|-------------------------|

|-------------------------------------------------|-------------------------|

|-------------------------------------------------|-------------------------|

|                                                                           |

|                                                                           |

|-------------------------12h13p12p10h12p10----10h12h13~----12--10--12------|

|----------------10h12h13-------------------13------------------------------|

|--------9h10h12------------------------------------------------------------|

|9h10h12--------------------------------------------------------------------|

|---------------------------------------------------------------------------|

|---------------------------------------------------------------------------|

 

 

Continue riff

 

|-p13-t16p13-t16p13p10-t16p13-t16p13p10-t19p16p10h16p13p10h16p13p10-t20p16p10

|---------------------------------------------------------------------------

|---------------------------------------------------------------------------

|---------------------------------------------------------------------------

|---------------------------------------------------------------------------

|---------------------------------------------------------------------------

 

 

-t17p13-t17p13|t16p13p10-tx-p13p12p10-13p12p10-12h13p12p10-------12h13p12p10

--------------|--------------------------------------------13p10------------

--------------|-------------------------------------------------------------

--------------|-------------------------------------------------------------

--------------|-------------------------------------------------------------

--------------|-------------------------------------------------------------

 

 

----------------------------------------------|-----------------------------|

-13p12p10---------12p10p9---------------------|-----------------------------|

----------12p10p9---------12p10p9-x-10p9------|--------------------------4*~|

-----------------------------------------12--|--7--6h7p6------------------|

----------------------------------------------|------------8p7p5------------|

----------------------------------------------|------------------7�dive----|

 

 

Play 2x

Gotta ...

||--------------------|----------------------------------------------------|

||-2------------------|---3------------------------------------------------|

||-2------------------|---2------------------------------------------------|

||-4------------------|---4------------------------------------------------|

||-4------------------|----------------------------------------------------|

||-2------------------|----------------------------------------------------|

 

 

Tryin' ...

|----------------------------|--------------------------------------------||

|--5---------/3--------------|--------------------------------------------||

|--4---------/4--------------|--------------------------------------------||

|--6---------/4--------------|--------------------------------------------||

|----------------------------|----5---4---2---2h4---2---------------------||

|----------------------------|0h2---2---2---2-----5---5-4-2-0-------------||

 

 

|-----------------------------------------------|---------------------------

|-----------------------------------------------|---------------------------

|-------------------------6----6--------6----6--|---------------------------

|----------4--3-----------6----6--------6----6--|-4--3--------3-------------

|-2--4--5--------5--4--2--4----4--------4----4--|-------5--4-----5--4--2--5-

|-----------------------------------------------|---------------------------

 

 

----------------------|----------------------------------------------------|

----------------------|----------------------------------------------------|

----------------------|----------------------------------------------------|

----------------------|---4------4-----------------4-------4---------------|

-4--2-----4--2--------|---4------4-----------------4-------4---------------|

-------5--------5--4--|---2------2-----------------2-------2---------------|

Linkback: https://www.buyuknet.com/yngwie-malmsteen-soldier-without-faith-tab-t29343.0.html

Etiket:
 

Bu bilgi size yardimci oldu mu?

EvetHayır
Yngwie Malmsteen - Soldier Without Faith (Tab)
Yngwie Malmsteen - Soldier Without Faith (Tab)
(Ortalama: 5 üzerinden 2.5 - 2 Oy)
2
Yngwie Malmsteen - Soldier Without Faith (Tab)

Yngwie Malmsteen - Soldier Without Faith (Tab) »tune down 1/2 step |-----------------------|--------------------------------------------------|