Yngwie Malmsteen - You Don't Remember (Tab)

Buyuknet15.10.2010 - 02:02
*





          |--------------------|---------------------|---------------|---------------|

|--------------------|---------------------|---------------|---------------|

|--------2--2--------|-------2--2----------|-------2--2----|---------------|

|--------2--2--------|-------2--2----------|-------2--2---5|----------7~---|

|--3--2--0--0--------|-3--2--0--0----------|-3--2--0--0---5|-0--2-----7~---|

|--------------------|---------------------|--------------3|----0-----5~---|

 

 

|-------------------------------------|------------------------------------|

|-------------------------------------|------------------------------------|

|-------------------------------------|------------------------------------|

|-------2--2--2--2--2--2--------------|-------x--2--2--2--2----------------|

|-3--2--0--0--0--0--0--0--0--0--3--2--|-------0--0--0--0--0--0--0--3--2----|

|-------------------------------------|-5--3-------------------------------|

 

                                           pick scrape

|---------------------------|----------------------------------------------|

|---------------------------|----------------------------------------------|

|---------------------------|--------------x-------------------------------|

|-2--2--2--2--2--2--2---5---|---------7--------x---------------------------|

|-0--0--0--0--0--0--0---5---|-----2---7--------x----------------3--2-------|

|-----------------------3---|--0--0---5------------------------------------|

 

 

1. It ..

2. Turn ...

 

|----------------------------------|--------------------------------------|

|----------------------------------|--------------------------------------|

|----------------------------------|--------------------------------------|

|-2--2--2--2--2--2-----------------|-2--2--2--2--2--2---------------------|

|-0--0--0--0--0--0--0--0--3--2-----|-0--0--0--0--0--0--0--0--3--2---------|

|----------------------------------|--------------------------------------|

 

                                                             any ..

                                                You ..

 

|---------------------------|----------------------------------------------|

|---------------------------|----------------------------------------------|

|---------------------------|----------------------------------------------|

|-2--2--2--2--2--2--2---5---|------------------7~--------------------------|

|-0--0--0--0--0--0--0---5---|------2-----------7~------------------s3--2---|

|-----------------------3---|------0-----------5~--------------------------|

 

could ..

me ..

 

|----------------------------------|--------------------------------------|

|----------------------------------|--------------------------------------|

|----------------------------------|--------------------------------------|

|-2--2--2--2--2--2-----------------|-2--2--2--2--2--2---------------------|

|-0--0--0--0--0--0--0--0--3--2-----|-0--0--0--0--0--0--0--0--3--2---------|

|----------------------------------|--------------------------------------|

 

                                                             Without ..

Pre-chorus                                                   when ..

 

|---------------------------|----------------------------------------------|

|---------------------------|----------------------------------------------|

|---------------------------|----------------------------------------------|

|-2--2--2--2--2--2--2---5---|------------------7~-------------7s-----------|

|-0--0--0--0--0--0--0---5---|------2-----------7~-------------7s-3--2--0--3|

|-----------------------3---|------0-----------5~--------------------------|

 

 

there ..

you ..

 

|------------------------|-----------------|-------------------------------|

|--------------3---------|-----------------|-------------------------------|

|--------------0---------|-----------------|-------------------------------|

|-3---------3--0---------|-----------------|-3----------------3-----2------|

|-3---------3------------|-----------------|-3----------------3-----2------|

|-1---------1--1---------|-----------------|-1----------------1-----0------|

 

 

me ..

there ..

 

|----------------|--------------------------|------------------------------|

|----------------|--------------------------|------------------------------|

|----------------|--------------------------|------------------------------|

|-------2~-------|------------3~------------|------------5-----------------|

|----------------|------------3~------------|------------5-----------------|

|--0-------------|-1-------1--1~------------|-1-s-3------3-----------------|

 

 

 

 

|---------------------------7s10-12s13-12-10--------------------------------|

|------------------------9------------------13-12-10s9----------------------|

|-----------------7--10--------------------------------10-9-----------------|

|-----------6--9--------------------------------------------12-10-9---------|

|-----5--8----------------------------------------------------------12-11-12|

|4--7-----------------------------------------------------------------------|

 

 

      You ..

Chorus

|----------------------------|-------------------------------|--------------

|----------------------------|-------------------------------|--------------

|----------------------------|-------------------------------|--------------

|-2--2--2--2--2--2--2--------|-------2--2--2--2--2--2--------|-2--2--2--2--2

|-0--0--0--0--0--0--0--------|-------0--0--0--0--0--0--3--2--|-0--0--0--0--0

|----------------------3--2--|-5--3--------------------------|--------------

 

                               You ...

* a.h.

------------|------------------|---------------------------|----------------

------------|------------------|---------------------------|----------------

------------|-------------2*---|---------------------------|----------------

-2--2--5----|--------7---------|-2--2--2--2--2--2--2-------|-2--2--2--2--2--

-0--0--5----|--2-----7---------|-0--0--0--0--0--0--0--3--2-|-0--0--0--0--0--

-------3----|--0--0--5---------|---------------------------|----------------

 

 

I'll ...

 

-------------|-------------------------------------------------------------|

-------------|-------------------------------------------------------------|

-------------|-------------------------------------------------------------|

-2-----------|-2--2--2--2--2--2--2--5-----------7--------------------------|

-0--0---3--2-|-0--0--0--0--0--0--0--5----2------7-------------3---2--------|

-------------|----------------------3----0--0---5--------------------------|

 

 

vibrato on all chords w/bar

Interlude

|-----------------|------------|-----------------------|-------------------|

|---6-------------|--3---------|--3s5----------5-------|---6---------------|

|---7-------------|--4---------|----5----------4-------|---5---------------|

|---7-------------|--5---------|----5----------5-------|---7---------------|

|---5-------------|--2---------|----3----------2-------|-------------------|

|-----------------|---------3--|-----------------------|---5---------------|

 

 

|-----------------|-----------------|--------------------------------------|

|--3---------1----|-----------------|--------------------------------------|

|--4---------2----|--4--------------|--7----------9--7--9--7s--------------|

|--3---------2----|--6--------------|--7-------7---------------------------|

|--2--------------|--7--------------|--7-----------------------------------|

|------------5----|--4--------------|--5-----------------------------------|

 

 

|----10h12p10s9---10--12-|-13~----s12--|12p10--10s8--8s7----7h10-----------|

|------------------------|-------------|-----------------------------------|

|-6----------------------|-------------|-----------------------------------|

|------------------------|-------------|-----------------------------------|

|------------------------|-------------|-----------------------------------|

|------------------------|-------------|-----------------------------------|

|                        |             |                                   |

|                        |             |                                   |

|------------------------|-------------|-----------------------------------|

|-3-------10~------------|--6----------|--3--------------------------------|

|----6-------------------|--7----------|--4--------------------------------|

|----7-------------------|--7----------|--5--------------------------------|

|------------------------|--5----------|--2--------------------------------|

|----5-------------------|-------------|-----------------3-----------------|

 

                       1/2

|-10h12p10-10-----------------------|--------------------------------------|

|-------------13-13p12-12b--rb12-10-|10h12p10h12p10s8-8h10p8s6-6h8p6s5-5---|

|-----------------------------------|------------------------------------7-|

|-----------------------------------|--------------------------------------|

|-----------------------------------|--------------------------------------|

|-----------------------------------|--------------------------------------|

|                                   |                                      |

|                                   |                                      |

|-----------------------------------|--------------------------------------|

|-3s5---------------------------5---|--6-----------------------------------|

|---5---------------------------4---|--5-----------------------------------|

|---5---------------------------5---|--7-----------------------------------|

|---3---------------------------2---|--------------------------------------|

|-----------------------------------|--5-----------------------------------|

 

 

|-------------------------------|--------------------------16h19p16---------

|-10s15~----13h15p13s12---------|---15bf-15s17-18-15-17-18----------18p17p15

|---------------------------14--|13-----------------------------------------

|-------------------------x-----|-------------------------------------------

|-----------------------x-------|-------------------------------------------

|-------------------------------|-------------------------------------------

|                               |

|                               |

|-------------------------------|-------------------------------------------

|-3---------------------1-------|-------------------------------------------

|-4---------------------2-------|4------------------------------------------

|-3---------------------2-------|6------------------------------------------

|-2-----------------------------|7------------------------------------------

|-----------------------5-------|4------------------------------------------

 

 

|----------------------------------|

|----15-17p15----------------------|

|-17----------17p15p14s13-14-16p13-|

|----------------------------------|

|----------------------------------|

|----------------------------------|

|                                  |

|                                  |

|----------------------------------|

|----------------------------------|

|----------------------------------|

|----------------------------------|

|----------------------------------|

|----------------------------------|

 

 

Solo

 

|-15bf~-------12h13p12----|----12-16-12-17-12-13----12----------------12----

|---------s15----------15-|-13-------------------15----13h15p13s12-15-------

|-------------------------|-------------------------------------------------

|-------------------------|-------------------------------------------------

|-------------------------|-------------------------------------------------

|-------------------------|-------------------------------------------------

 

 

-------|------------------------------------------|-------------------------

-13-12-|-------------------------17-16-17-19-20~--|-19-17-19-20-19-17-16-19-

-------|----------13-12-15-13-17------------------|-------------------------

-------|-14p13-14---------------------------------|-------------------------

-------|------------------------------------------|-------------------------

-------|------------------------------------------|-------------------------

 

 

--------------------------------------------------|-------------------------

-16-17-19p16----17-15s13-15p13--------13----------|-17p15-13-13s15-13-12-12-

-------------18----------------17-15-----17p15-13-|-------------------------

--------------------------------------------------|-------------------------

--------------------------------------------------|-------------------------

--------------------------------------------------|-------------------------

 

 

--------------------------|------------------------------------------------|

-13~--5s10-12-13-15~------|-13-12-13-13h15-13p12----12---------------------|

--------------------------|----------------------14----13-14~--------------|

--------------------------|------------------------------------------------|

--------------------------|------------------------------------------------|

--------------------------|------------------------------------------------|

 

                                                               1/2

|-----------------------------------12h15p12h13p12--------------------------

|--------------------12h13h15-12-13----------------15p13p12h13-12b--rb12s10-

|---------9h10h12s14--------------------------------------------------------

|-9h10h12-------------------------------------------------------------------

|---------------------------------------------------------------------------

|---------------------------------------------------------------------------

 

 

-12h13|p12p10----------12h13p12p10-------------------13h15p13-17-13-15--17--

------|-------13p12p10-------------13p12p0--13h15h17------------------------

------|---------------------------------------------------------------------

------|---------------------------------------------------------------------

------|---------------------------------------------------------------------

------|---------------------------------------------------------------------

 

                                     2   1 1/2                2

-13-15-17s19-15-17-19s20-17-19-20-|-20b---rb20-----20bf------20b-~---x------

----------------------------------|-------------------------------------x---

----------------------------------|-----------------------------------x-----

----------------------------------|-----------------------------------------

----------------------------------|-----------------------------------------

----------------------------------|-----------------------------------------

 

 

-8h10p8s7-10-|-7------7-8----7-8-10s12---10s8~--|----18bf--rb18-------------

-------------|---9-10-----10--------------------|----------------18-17-18---

-------------|----------------------------------|--x------------------------

-------------|----------------------------------|x--------------------------

-------------|----------------------------------|---------------------------

-------------|----------------------------------|---------------------------

 

 

-------------|----------------10h12h13p12p10h12p10-------10-----------------

-15h18-13h18-|-12h18-10h12h13----------------------13-12----13-12-10-13p12--

-------------|--------------------------------------------------------------

-------------|--------------------------------------------------------------

-------------|--------------------------------------------------------------

-------------|--------------------------------------------------------------

 

 

--------------------------------------|-------------------------------------

-10s9-13p12-10s9-13p12-10s9-13p12-10s9|-12-10p9----10p9-------9-------------

--------------------------------------|---------12------12p10---12p10p9-10--

--------------------------------------|-------------------------------------

--------------------------------------|-------------------------------------

--------------------------------------|-------------------------------------

 

 

-----------------------------------------12p8h12s|17p12----14p8p0-12p10p8s7-

-9-10p9-------------------------------10---------|------13------------------

--------12p10p9----10p9-------------9------------|--------------------------

----------------12------12p10p9--10--------------|--------------------------

-------------------------------------------------|--------------------------

-------------------------------------------------|--------------------------

 

               1/2

---------------------|------------------------12-13-14s17-13-15----|-13-----

-10dive--------------|---------------12-13h15-------------------17-|----15--

----------------7b---|-p5h7-t12--s14-------------------------------|--------

-------------x-------|---------------------------------------------|--------

-----------x---------|---------------------------------------------|--------

---------------------|---------------------------------------------|--------

 

                                    You ...

 

-----------------------------------|---------------------|------------------

-17-13-15p12-13p12-13~--p12--------|---------------------|------------------

----------------------------14p12--|--12h14~-------------|--14s9~-----------

-----------------------------------|---------------------|------------------

-----------------------------------|---------------------|------------------

-----------------------------------|---------------------|------------------

 

 

I'll ..You ..

|-----------------------|---------------|---------12---------10~-----------|

|-----------------------|---------------|------10--------------------------|

|-----------------------|---------------|----9-----------------------------|

|------p7---------------|---------------|-10-------------------------------|

|-----------------------|---------------|----------------------------------|

|-----------------------|---------------|----------------------------------|

 

                                 1/2

|-12s17------15------|-p13p12----12b-rb~----------------17bf~--------------|

|--------------------|--------15-------------------20----------------------|

|--------------------|-----------------------------------------------------|

|--------------------|-----------------------------------------------------|

|--------------------|-----------------------------------------------------|

|--------------------|-----------------------------------------------------|

 

 

                                    You ..

                                                      1/2

|-17s16s17-19-20-17---19-20s22-22bf---|------------------------------------|

|-------------------------------------|------13-15-17-17b------------------|

|-------------------------------------|-14~--------------------------------|

|-------------------------------------|------------------------------------|

|-------------------------------------|------------------------------------|

|-------------------------------------|------------------------------------|

 

 

                   I'll ..

                                            1/2

|----------------|-----s12p10p8h10-------|--10b--rb--8~---------------12-15-

|----rb17~-------|-----------------------|-------------------12-13-15-------

|----------------|-----------------------|--------------9s14----------------

|----------------|-----------------------|----------------------------------

|----------------|-----------------------|----------------------------------

|----------------|-----------------------|----------------------------------

 

                                   1/2                      1/2  3/4 1/2

-13-12-----------|-----------------------|---------------|--16b--16s19b-----

-------15-13-12--|--------13-15-17-17b---|--t21p17b~-----|------------------

-----------------|-14~-------------------|---------------|------------------

-----------------|-----------------------|---------------|------------------

-----------------|-----------------------|---------------|------------------

-----------------|-----------------------|---------------|------------------

 

 

-20-22-20bf-----|--20p19-20~---20p19-17s16-20-19-17s15-20-19-17s16-20-19---|

----------------|----------------------------------------------------------|

----------------|----------------------------------------------------------|

----------------|----------------------------------------------------------|

----------------|----------------------------------------------------------|

----------------|----------------------------------------------------------|

 

 

|17s16-20-19-17s16-20-19-17s16-20-19-17s16----------------------------------

|------------------------------------------18-17-15-------------------------

|---------------------------------------------------17-16-14s13-------------

|---------------------------------------------------------------15s14-12----

|---------------------------------------------------------------------------

|---------------------------------------------------------------------------

 

 

--------------|-------------------------------------------------------------

--------------|-------------------------------------------------------------

--------------|----------------------------------------------------12h14----

-15-14p12-----|-15p14-12-15-14p12----14p12----------------12-14h15----------

----------15--|-------------------15-------15p14-12-14h15-------------------

--------------|-------------------------------------------------------------

 

 

----------12-12-14p13p12--------------|--------------------------------12*--|

-12h13-15----------------15-13p12-----|-13p12-------12----------------------|

----------------------------------14--|-------14-13-----13-14~--7s9-7-------|

--------------------------------------|-------------------------------------|

--------------------------------------|-------------------------------------|

--------------------------------------|-------------------------------------|

 

                                     1/2

|--------------|---------------------12b---|--------12~--------------------|

|--------------|------------------10-------|-------------------------------|

|-5p4h5p4-5-7--|-p5-4-----------9----------|-------------------------------|

|--------------|------7~--7-h10------------|-------------------------------|

|--------------|---------------------------|-------------------------------|

|--------------|---------------------------|-------------------------------|

 

 

|-12p11p10s8h12p10p8s7-10-7-8----7---------------------|--------------------

|-----------------------------10---9-10-8h9-6h8-5-6-3--|-5p4p3--------------

|------------------------------------------------------|-------5p4----------

|------------------------------------------------------|-----------6-7s-----

|------------------------------------------------------|--------------------

|------------------------------------------------------|--------------------

 

 

----------12s17h20p17-----------13p12----------------|----------------------

-------13-------------17--------------13p12----------|-------------13h15h17-

----14-------------------17s----------------14~------|-14p13-14-16----------

-14--------------------------------------------------|----------------------

-----------------------------------------------------|----------------------

-----------------------------------------------------|----------------------

 

 

-13h15h17----------13-17-15-13-15-13----15-13-------13-------|--------------

----------13h15h17-------------------17-------17-15----15-13-|-17-15-13-13--

-------------------------------------------------------------|--------------

-------------------------------------------------------------|--------------

-------------------------------------------------------------|--------------

-------------------------------------------------------------|--------------

 

 

-------------------|-------------------|-----------------------------------|

-15-13-12-13bf~----|-13s21-------------|-----------------------------------|

-------------------|-------------------|---s7-5--7~------------------------|

-------------------|-------------------|-----------------------------------|

-------------------|-------------------|-----------------------------------|

-------------------|-------------------|-----------------------------------|

 

 

fade out

Linkback: https://www.buyuknet.com/yngwie-malmsteen-you-dont-remember-tab-t29319.0.html

Etiket:
 

Bu bilgi size yardimci oldu mu?

EvetHayır
Yngwie Malmsteen - You Don't Remember (Tab)
Yngwie Malmsteen - You Don't Remember (Tab)
(Ortalama: 5 üzerinden 2.5 - 2 Oy)
2
Yngwie Malmsteen - You Don't Remember (Tab)

Yngwie Malmsteen - You Don't Remember (Tab) »           |--------------------|---------------------|---------------|---------------|